Breaking Benjamin - Firefly tab

Firefly
Breaking Benjamin
We Are Not Alone (2004)

Words & Music by Benjamin Burnley and Breaking Benjamin

GTR I - Drop C Tuning "Benjamin Burnley" w. Distortion (d,A,F,C,G,C)
GTR II - Drop C Tuning "Aaron Fink" w. Distortion (d,A,F,C,G,C)
GTR III - Drop C Tuning "Fills" w. Flanger (d,A,F,C,G,C)

Intro

  GTR I,II
d|-------------------------------------------------|
A|-------------------------------------------------|
F|-------------------------------------------------|
C|-10--0-----0-----0-10--0-----0-----0-10--0-----0-|
G|-10--0-----0-----0-10--0-----0-----0-10--0-----0-|
C|-10--0-----0-----0-10--0-----0-----0-10--0-----0-|

  GTR I,II
d|-------------------------------------------------|
A|-------------------------------------------------|
F|-------------------------------------------------|
C|--3--0-----0-----0-10--0-----0-----0-10-12-------|
G|--3--0-----0-----0-10--0-----0-----0-10-12-----x-|
C|--3--0-----0-----0-10--0-----0-----0-10-12-----x-|

  GTR I,II
d|-------------------------------------------------|
A|-------------------------------------------------|
F|-------------------------------------------------|
C|-10--0-----0-----0-10--0-----0-----0-10--0-----0-|
G|-10--0-----0-----0-10--0-----0-----0-10--0-----0-|
C|-10--0-----0-----0-10--0-----0-----0-10--0-----0-|

  GTR I,II
d|-------------------------------------14----------|
A|--------------------------------------x----------|
F|-------------------------------------11----------|
C|--3--0-----0-----0-10--0-----0-------------------|
G|--3--0-----0-----0-10--0-----0-------------------|
C|--3--0-----0-----0-10--0-----0-------------------|

Main Riff

  GTR I,II
d|-------------------------------------------------|
A|-------------------------------------------------|
F|-------------------------------------------------|
C|-10--0-----0-----0-10--0-----0-----0-10--0-----0-|
G|-10--0-----0-----0-10--0-----0-----0-10--0-----0-|
C|-10--0-----0-----0-10--0-----0-----0-10--0-----0-|

  GTR I,II
d|-------------------------------------------------|
A|-------------------------------------------------|
F|-------------------------------------------------|
C|--3--0-----0-----0-10--0-----0-----0-------------|
G|--3--0-----0-----0-10--0-----0-----0-------------|
C|--3--0-----0-----0-10--0-----0-----0-10h12-10p-0-|

  GTR I,II
d|-------------------------------------------------|
A|-------------------------------------------------|
F|-------------------------------------------------|
C|-10--0-----0-----0-10--0-----0-----0-10--0-----0-|
G|-10--0-----0-----0-10--0-----0-----0-10--0-----0-|
C|-10--0-----0-----0-10--0-----0-----0-10--0-----0-|

  GTR I,II
d|-------------------------------------------------|
A|-------------------------------------------------|
F|-------------------------------------------------|
C|--3--0-----0-----0-10--0-----0-----0-10h12-10p-0-|
G|--3--0-----0-----0-10--0-----0-----0-10h12-10p-0-|
C|--3--0-----0-----0-10--0-----0-----0-10h12-10p-0-|

Verse

  GTR III
d|-------------------------------------------------|
A|-------------------------------------------------|
F|-----------0--------------------------0----------|
C|-----4--------4-----5--------4--------------4----|
G|--2-----2--------2-------------------------------|
C|-------------------------------------------------|

  GTR III
d|-------------------------------------------------|
A|-------------------------------------------------|
F|-----------0--------------------------0----------|
C|-----4--------4-----5--------4--------------4----|
G|--0-----0--------0-------------------------------|
C|-------------------------------------------------|

  GTR I,III
d|-------------------------------------------------|
A|-------------------------------------------------|
F|--------------------------------------0----------|
C|-----------4--------5--------4--------------4----|
G|-------------------------------------------------|
C|--4----------------------------------------------|

  GTR I,III
d|-------------------------------------------------|
A|-------------------------------------------------|
F|--------------------------------------0----------|
C|-----------4--------5--------4--------------4----|
G|-------------------------------------------------|
C|--5----------------------------------------------|

  GTR I,III
d|-------------------------------------------------|
A|-------------------------------------------------|
F|--------------------------------------0----------|
C|-----------4--------5--------4--------------4----|
G|--2----------------------------------------------|
C|-------------------------------------------------|

  GTR I,III
d|-------------------------------------------------|
A|-------------------------------------------------|
F|--------------------------------------0----------|
C|-----------4--------5--------4--------------4----|
G|--0----------------------------------------------|
C|-------------------------------------------------|

  GTR I,III
d|-------------------------------------------------|
A|-------------------------------------------------|
F|--------------------------------------0----------|
C|-----------4--------5--------4--------------4----|
G|-------------------------------------------------|
C|--4----------------------------------------------|

  GTR I,III
d|-------------------------------------------------|
A|-------------------------------------------------|
F|-------------------------------------------------|
C|-----------4--------5--------4-------------------|
G|-------------------------------------------------|
C|--5----------------------------------------------|

Chorus

  GTR I
d|-------------------------------------------------|
A|-------------------------------------------------|
F|-------------------------------------------------|
C|--0--------0--------0--------0--------0-----0----|
G|--0--------0--------0--------0--------0-----0----|
C|--0--------0--------0--------0--------0-----0----|
 |
 |GTR II
d|-------------------------------------------------|
A|-------------------------------------------------|
F|-11-------11-------11-------11-------11----11----|
C|--x--------x--------x--------x--------x-----x----|
G|--9--------9--------9--------9--------9-----9----|
C|-------------------------------------------------|

  GTR I
d|-------------------------------------------------|
A|-------------------------------------------------|
F|-------------------------------------------------|
C|--7--------7--------7--------7--------7-----7----|
G|--7--------7--------7--------7--------7-----7----|
C|--7--------7--------7--------7--------7-----7----|
 |
 |GTR II
d|-------------------------------------------------|
A|-------------------------------------------------|
F|--9--------9--------9--------9--------9-----9----|
C|--x--------x--------x--------x--------x-----x----|
G|--7--------7--------7--------7--------7-----7----|
C|-------------------------------------------------|

  GTR I
d|-------------------------------------------------|
A|-------------------------------------------------|
F|-------------------------------------------------|
C|--5--------5--------5--------5--------5-----5----|
G|--5--------5--------5--------5--------5-----5----|
C|--5--------5--------5--------5--------5-----5----|
 |
 |GTR II
d|-------------------------------------------------|
A|-------------------------------------------------|
F|-12-------12-------12-------12-------12----12----|
C|--x--------x--------x--------x--------x-----x----|
G|-10-------10-------10-------10-------10----10----|
C|-------------------------------------------------|

  GTR I
d|-------------------------------------------------|
A|-------------------------------------------------|
F|-------------------------------------------------|
C|--8--------8--------8--------8-------10----10----|
G|--8--------8--------8--------8-------10----10----|
C|--8--------8--------8--------8-------10----10----|
 |
 |GTR II
d|-------------------------------------------------|
A|-------------------------------------------------|
F|-15-------15-------15-------15-------17----17----|
C|--x--------x--------x--------x--------x-----x----|
G|-13-------13-------13-------13-------15----15----|
C|-------------------------------------------------|

  GTR I
d|-------------------------------------------------|
A|-------------------------------------------------|
F|-------------------------------------------------|
C|--0--------0--------0--------0--------0-----0----|
G|--0--------0--------0--------0--------0-----0----|
C|--0--------0--------0--------0--------0-----0----|
 |
 |GTR II
d|-------------------------------------------------|
A|-------------------------------------------------|
F|-11-------11-------11-------11-------11----11----|
C|--x--------x--------x--------x--------x-----x----|
G|--9--------9--------9--------9--------9-----9----|
C|-------------------------------------------------|

  GTR I
d|-------------------------------------------------|
A|-------------------------------------------------|
F|-------------------------------------------------|
C|--7--------7--------7--------7--------7-----7----|
G|--7--------7--------7--------7--------7-----7----|
C|--7--------7--------7--------7--------7-----7----|
 |
 |GTR II
d|-------------------------------------------------|
A|-------------------------------------------------|
F|--9--------9--------9--------9--------9-----9----|
C|--x--------x--------x--------x--------x-----x----|
G|--7--------7--------7--------7--------7-----7----|
C|-------------------------------------------------|

  GTR I
d|-------------------------------------------------|
A|-------------------------------------------------|
F|-------------------------------------------------|
C|--5--------5--------5--------5--------5-----5----|
G|--5--------5--------5--------5--------5-----5----|
C|--5--------5--------5--------5--------5-----5----|
 |
 |GTR II
d|-------------------------------------------------|
A|-------------------------------------------------|
F|-12-------12-------12-------12-------12----12----|
C|--x--------x--------x--------x--------x-----x----|
G|-10-------10-------10-------10-------10----10----|
C|-------------------------------------------------|

  GTR I
d|-------------------------------------------------|
A|-------------------------------------------------|
F|-------------------------------------10\-9/10----|
C|--8--------8--------8--------8--------x--x--x----|
G|--8--------8--------8--------8--------8\-7/-8----|
C|--8--------8--------8--------8-------------------|
 |
 |GTR II
d|-------------------------------------------------|
A|-------------------------------------------------|
F|-15-------15-------15-------15-------10\-9/10----|
C|--x--------x--------x--------x--------x--x--x----|
G|-13-------13-------13-------13--------8\-7/-8----|
C|-------------------------------------------------|

Post Chorus

  GTR I,II
d|-------------------------------------------------|
A|-------------------------------------------------|
F|-------------------------------------------------|
C|-10--0-----0-----0-10--0-----0-----0-10--0-----0-|
G|-10--0-----0-----0-10--0-----0-----0-10--0-----0-|
C|-10--0-----0-----0-10--0-----0-----0-10--0-----0-|

  GTR I,II
d|-------------------------------------------------|
A|-------------------------------------------------|
F|-------------------------------------------------|
C|--3--0-----0-----0-10--0-----0-----0-10h12-10\---|
G|--3--0-----0-----0-10--0-----0-----0-10h12-10\---|
C|--3--0-----0-----0-10--0-----0-----0-10h12-10\---|

Verse 2

  GTR III
d|-------------------------------------------------|
A|-------------------------------------------------|
F|-----------0-------------------------------------|
C|-----4--------4-----5--------4-------------------|
G|--2-----2--------2--------------------0----------|
C|-------------------------------------------------|

  GTR I
d|-------------------------------------------------|
A|-------------------------------------------------|
F|--------------------------------------0----------|
C|-----------4--------5--------4--------------4----|
G|--2----------------------------------------------|
C|-------------------------------------------------|
 |
 |GTR III
d|-------------------------------------------------|
A|-------------------------------------------------|
F|-----------0--------------------------0----------|
C|-----4--------4-----5--------4--------------4----|
G|--2-----2--------2-------------------------------|
C|-------------------------------------------------|


  GTR I
d|-------------------------------------------------|
A|-------------------------------------------------|
F|--------------------------------------0----------|
C|-----------4--------5--------4--------------4----|
G|--0----------------------------------------------|
C|-------------------------------------------------|
 |
 |GTR III
d|-------------------------------------------------|
A|-------------------------------------------------|
F|-----------0--------------------------0----------|
C|-----4--------4-----5--------4--------------4----|
G|--0-----0--------0-------------------------------|
C|-------------------------------------------------|

  GTR I,III
d|-------------------------------------------------|
A|-------------------------------------------------|
F|--------------------------------------0----------|
C|-----------4--------5--------4--------------4----|
G|-------------------------------------------------|
C|--4----------------------------------------------|

  GTR I,III
d|-------------------------------------------------|
A|-------------------------------------------------|
F|--------------------------------------0----------|
C|-----------4--------5--------4--------------4----|
G|-------------------------------------------------|
C|--5----------------------------------------------|

  GTR I,III
d|-------------------------------------------------|
A|-------------------------------------------------|
F|--------------------------------------0----------|
C|-----------4--------5--------4--------------4----|
G|--2----------------------------------------------|
C|-------------------------------------------------|
 |
 |GTR II
d|-------------------------------------------------|
A|-------------------------------------------------|
F|-------------------------------------------------|
C|--4--4--4--4--4--4--4--4--4--4--4--4--4--4--4--4-|
G|--2--2--2--2--2--2--2--2--2--2--2--2--2--2--2--2-|
C|-------------------------------------------------|
    .  .  .  .  .  .  .  .  .  .  .  .  .  .  .  .

  GTR I,III
d|-------------------------------------------------|
A|-------------------------------------------------|
F|--------------------------------------0----------|
C|-----------4--------5--------4--------------4----|
G|--0----------------------------------------------|
C|-------------------------------------------------|
 |
 |GTR II
d|-------------------------------------------------|
A|-------------------------------------------------|
F|-------------------------------------------------|
C|--4--4--4--4--4--4--4--4--4--4--4--4--4--4--4--4-|
G|--0--0--0--0--0--0--0--0--0--0--0--0--0--0--0--0-|
C|-------------------------------------------------|
    .  .  .  .  .  .  .  .  .  .  .  .  .  .  .  .

  GTR I,III
d|-------------------------------------------------|
A|-------------------------------------------------|
F|--------------------------------------0----------|
C|-----------4--------5--------4--------------4----|
G|-------------------------------------------------|
C|--4----------------------------------------------|
 |
 |GTR II
d|-------------------------------------------------|
A|-------------------------------------------------|
F|-------------------------------------------------|
C|--4--4--4--4--4--4--4--4--4--4--4--4--4--4--4--4-|
G|-------------------------------------------------|
C|--4--4--4--4--4--4--4--4--4--4--4--4--4--4--4--4-|
    .  .  .  .  .  .  .  .  .  .  .  .  .  .  .  .

  GTR I,III
d|-------------------------------------------------|
A|-------------------------------------------------|
F|-------------------------------------------------|
C|-----------4--------5--------4-------------------|
G|-------------------------------------------------|
C|--5----------------------------------------------|
 |
 |GTR II
d|-------------------------------------------------|
A|-------------------------------------------------|
F|-------------------------------------------------|
C|--4--4--4--4--4--4--4--4--4--4-------------------|
G|-------------------------------------------------|
C|--5--5--5--5--5--5--5--5--5--5-------------------|
    .  .  .  .  .  .  .  .  .  .                  

Chorus

Interlude

  GTR I
d|-------------------------------------------------|
A|-------------------------------------------------|
F|-------------------------------------11/12\11----|
C|--9-----x--9-----x--9-----x--9-----x-------------|
G|--9-----x--9-----x--9-----x--9-----x-------------|
C|--9-----x--9-----x--9-----x--9-----x-------------|
 |
 |GTR II
d|-------------------------------------------------|
A|-------------------------------------------------|
F|-------------------------------------------------|
C|--9-----x--9-----x--9-----x--9-----x-------------|
G|--9-----x--9-----x--9-----x--9-----x--9/10\-9----|
C|--9-----x--9-----x--9-----x--9-----x-------------|

  GTR I
d|-------------------------------------------------|
A|-------------------------------------------------|
F|-------------------------------------11/12\11----|
C|--9-----x--9-----x--9-----x--9-----x-------------|
G|--9-----x--9-----x--9-----x--9-----x-------------|
C|--9-----x--9-----x--9-----x--9-----x-------------|
 |
 |GTR II
d|-------------------------------------------------|
A|-------------------------------------------------|
F|-------------------------------------------------|
C|--9-----x--9-----x--9-----x--9-----x-------------|
G|--9-----x--9-----x--9-----x--9-----x--9/10\-9----|
C|--9-----x--9-----x--9-----x--9-----x-------------|

  GTR I
d|--------------------------------------5/-7\-5----|
A|-------------------------------------------------|
F|-------------------------------------------------|
C|--7-----x--7-----x--7-----x--7-----x-------------|
G|--5-----x--5-----x--5-----x--5-----x-------------|
C|--5-----x--5-----x--5-----x--5-----x-------------|
 |
 |GTR II
d|-------------------------------------------------|
A|-------------------------------------------------|
F|-------------------------------------------------|
C|--7-----x--7-----x--7-----x--7-----x-------------|
G|--5-----x--5-----x--5-----x--5-----x--9/10\-9----|
C|--5-----x--5-----x--5-----x--5-----x-------------|

  GTR I
d|--------------------------------------5/-7\-5----|
A|-------------------------------------------------|
F|-------------------------------------------------|
C|--7-----x--7-----x--7-----x--7-----x-------------|
G|--5-----x--5-----x--5-----x--5-----x-------------|
C|--5-----x--5-----x--5-----x--5-----x-------------|
 |
 |GTR II
d|-------------------------------------------------|
A|-------------------------------------------------|
F|-------------------------------------------------|
C|--7-----x--7-----x--7-----x--7-----x-------------|
G|--5-----x--5-----x--5-----x--5-----x--9/10\-9----|
C|--5-----x--5-----x--5-----x--5-----x-------------|

Bridge

  GTR I
d|-------------------------------------------------|
A|-------------------------------------------------|
F|-------------------------------------------------|
C|--9--------7--------5-----------------9\---------|
G|--9--------7--------5-----------------9\---------|
C|--9--------7--------5-----------------9\---------|
 |
 |GTR II
d|-------------------------------------------------|
A|-------------------------------------------------|
F|------------------------------------/15b~--------|
C|--9--------7--------5----------------------------|
G|--9--------7--------5----------------------------|
C|--9--------7--------5----------------------------|

  GTR I
d|-------------------------------------------------|
A|-------------------------------------------------|
F|-------------------------------------------------|
C|--9--9-----7--7-----5--5--------------9\---------|
G|--9--9-----7--7-----5--5--------------9\---------|
C|--9--9-----7--7-----5--5--------------9\---------|
 |
 |GTR II
d|-------------------------------------------------|
A|------------------------------------/13b~--------|
F|-------------------------------------------------|
C|--9--9-----7--7-----5--5-------------------------|
G|--9--9-----7--7-----5--5-------------------------|
C|--9--9-----7--7-----5--5-------------------------|

  GTR I,II
d|-------------------------------------------------|
A|-------------------------------------------------|
F|-------------------------------------------------|
C|--9--------7--------5-----------------5----------|
G|--9--------7--------5-----5--5--5--5--5----------|
C|--9--------7--------5-----5--5--5--5--5----------|
                            .  .  .  . 

Chorus

Chorus 2

  GTR I
d|-------------------------------------------------|
A|-------------------------------------------------|
F|-------------------------------------------------|
C|--0--------0--------0--------0--------0-----0----|
G|--0--------0--------0--------0--------0-----0----|
C|--0--------0--------0--------0--------0-----0----|
 |
 |GTR II
d|-------------------------------------------------|
A|-------------------------------------------------|
F|-11-------11-------11-------11-------11----11----|
C|--x--------x--------x--------x--------x-----x----|
G|--9--------9--------9--------9--------9-----9----|
C|-------------------------------------------------|
 |
 |GTR III
d|-------------------17-------15-------14----------|
A|----------15-------------------------------15----|
F|-------------------------------------------------|
C|-------------------------------------------------|
G|-------------------------------------------------|
C|-------------------------------------------------|

  GTR I
d|-------------------------------------------------|
A|-------------------------------------------------|
F|-------------------------------------------------|
C|--7--------7--------7--------7--------7-----7----|
G|--7--------7--------7--------7--------7-----7----|
C|--7--------7--------7--------7--------7-----7----|
 |
 |GTR II
d|-------------------------------------------------|
A|-------------------------------------------------|
F|--9--------9--------9--------9--------9-----9----|
C|--x--------x--------x--------x--------x-----x----|
G|--7--------7--------7--------7--------7-----7----|
C|-------------------------------------------------|
 |
 |GTR III
d|-------------------17-------15-------14----------|
A|----------15-------------------------------15----|
F|-14----------------------------------------------|
C|-------------------------------------------------|
G|-------------------------------------------------|
C|-------------------------------------------------|

  GTR I
d|-------------------------------------------------|
A|-------------------------------------------------|
F|-------------------------------------------------|
C|--5--------5--------5--------5--------5-----5----|
G|--5--------5--------5--------5--------5-----5----|
C|--5--------5--------5--------5--------5-----5----|
 |
 |GTR II
d|-------------------------------------------------|
A|-------------------------------------------------|
F|-12-------12-------12-------12-------12----12----|
C|--x--------x--------x--------x--------x-----x----|
G|-10-------10-------10-------10-------10----10----|
C|-------------------------------------------------|
 |
 |GTR III
d|-------------------17-------15-------14----------|
A|----------15-------------------------------15----|
F|-14----------------------------------------------|
C|-------------------------------------------------|
G|-------------------------------------------------|
C|-------------------------------------------------|

  GTR I
d|-------------------------------------------------|
A|-------------------------------------------------|
F|-------------------------------------------------|
C|--8--------8--------8--------8-------10----10----|
G|--8--------8--------8--------8-------10----10----|
C|--8--------8--------8--------8-------10----10----|
 |
 |GTR II
d|-------------------------------------------------|
A|-------------------------------------------------|
F|-15-------15-------15-------15-------17----17----|
C|--x--------x--------x--------x--------x-----x----|
G|-13-------13-------13-------13-------15----15----|
C|-------------------------------------------------|
 |
 |GTR III
d|-------------------17-------15-------17/18\17----|
A|----------15-------------------------------------|
F|-14----------------------------------------------|
C|-------------------------------------------------|
G|-------------------------------------------------|
C|-------------------------------------------------|

  GTR I
d|-------------------------------------------------|
A|-------------------------------------------------|
F|-------------------------------------------------|
C|--0--------0--------0--------0--------0-----0----|
G|--0--------0--------0--------0--------0-----0----|
C|--0--------0--------0--------0--------0-----0----|
 |
 |GTR II
d|-------------------------------------------------|
A|-------------------------------------------------|
F|-11-------11-------11-------11-------11----11----|
C|--x--------x--------x--------x--------x-----x----|
G|--9--------9--------9--------9--------9-----9----|
C|-------------------------------------------------|
 |
 |GTR III
d|-------------------17-------15-------14----------|
A|----------15-------------------------------15----|
F|-------------------------------------------------|
C|-------------------------------------------------|
G|-------------------------------------------------|
C|-------------------------------------------------|

  GTR I
d|-------------------------------------------------|
A|-------------------------------------------------|
F|-------------------------------------------------|
C|--7--------7--------7--------7--------7-----7----|
G|--7--------7--------7--------7--------7-----7----|
C|--7--------7--------7--------7--------7-----7----|
 |
 |GTR II
d|-------------------------------------------------|
A|-------------------------------------------------|
F|--9--------9--------9--------9--------9-----9----|
C|--x--------x--------x--------x--------x-----x----|
G|--7--------7--------7--------7--------7-----7----|
C|-------------------------------------------------|
 |
 |GTR III
d|-------------------17-------15-------14----------|
A|----------15-------------------------------15----|
F|-14----------------------------------------------|
C|-------------------------------------------------|
G|-------------------------------------------------|
C|-------------------------------------------------|

  GTR I
d|-------------------------------------------------|
A|-------------------------------------------------|
F|-------------------------------------------------|
C|--5--------5--------5--------5--------5-----5----|
G|--5--------5--------5--------5--------5-----5----|
C|--5--------5--------5--------5--------5-----5----|
 |
 |GTR II
d|-------------------------------------------------|
A|-------------------------------------------------|
F|-12-------12-------12-------12-------12----12----|
C|--x--------x--------x--------x--------x-----x----|
G|-10-------10-------10-------10-------10----10----|
C|-------------------------------------------------|
 |
 |GTR III
d|-------------------17-------15-------14----------|
A|----------15-------------------------------15----|
F|-14----------------------------------------------|
C|-------------------------------------------------|
G|-------------------------------------------------|
C|-------------------------------------------------|

  GTR I
d|-------------------------------------------------|
A|-------------------------------------------------|
F|-------------------------------------10\-9/10----|
C|--8--------8--------8--------8--------x--x--x----|
G|--8--------8--------8--------8--------8\-7/-8----|
C|--8--------8--------8--------8-------------------|
 |
 |GTR II
d|-------------------------------------------------|
A|-------------------------------------------------|
F|-15-------15-------15-------15-------10\-9/10----|
C|--x--------x--------x--------x--------x--x--x----|
G|-13-------13-------13-------13--------8\-7/-8----|
C|-------------------------------------------------|
 |
 |GTR III
d|-------------------17-------15-------17/18\17----|
A|----------15-------------------------------------|
F|-14----------------------------------------------|
C|-------------------------------------------------|
G|-------------------------------------------------|
C|-------------------------------------------------|

Outro

  GTR I,II
d|-------------------------------------------------|
A|-------------------------------------------------|
F|-------------------------------------------------|
C|-10--0-----0-----0-10--0-----0-----0-10--0-----0-|
G|-10--0-----0-----0-10--0-----0-----0-10--0-----0-|
C|-10--0-----0-----0-10--0-----0-----0-10--0-----0-|

  GTR I,II
d|-------------------------------------------------|
A|-------------------------------------------------|
F|-------------------------------------------------|
C|--3--0-----0-----0-10--0-----0-----0-------------|
G|--3--0-----0-----0-10--0-----0-----0-------------|
C|--3--0-----0-----0-10--0-----0-----0-10h12-10p-0-|

  GTR I,II
d|-------------------------------------------------|
A|-------------------------------------------------|
F|-------------------------------------------------|
C|-10--0-----0-----0-10--0-----0-----0-10--0-----0-|
G|-10--0-----0-----0-10--0-----0-----0-10--0-----0-|
C|-10--0-----0-----0-10--0-----0-----0-10--0-----0-|

  GTR I,II
d|-------------------------------------------------|
A|-------------------------------------------------|
F|-------------------------------------------------|
C|--3--0-----0-----0-10--0-----0-----0-10h12-------|
G|--3--0-----0-----0-10--0-----0-----0-10h12-------|
C|--3--0-----0-----0-10--0-----0-----0-10h12-------|


| b  bend
| r  release bend
|trp triplet
|PH. pinch harmonic
|fbk feedback
| .  palm-mute
| /  slide up
| \  slide down
| h  hammer-on
| p  pull-off
| ~  vibrato
|(7) harmonic
| x  Mute note
===============================================================================

Tap to rate this tab
 
# A B C D E F G H I J K L M N O P Q R S T U V W X Y Z