Breaking Benjamin - No Games tab

Song:   No Games
Artist: Breaking Benjamin
Album:  Saturate
~~~~~~~~~~~~~~~~~~~~~~~~~~~~~~~~~~~~~~~~~~~~~~~~~~~~~~~~~~~~~~~~~~~~~~~~~~~~~~~~~~~~~~
Key:

x - Dead Note
\ - Slide Down
/ - Slide Up
~~~~~~~~~~~~~~~~~~~~~~~~~~~~~~~~~~~~~~~~~~~~~~~~~~~~~~~~~~~~~~~~~~~~~~~~~~~~~~~~~~~~~~
Order:

Intro        x1
Verse        x2
Heavy Verse  x4
Chorus 1     x2
Verse        x2
Heavy Verse  x4
Chorus 1     x2
Chorus 2     x1
Chorus 1     x1
Bridge 1     x1
Bridge 2     x1
Bridge 1     x1
Bridge 2     x1
Bridge 3     x1
Chorus 1     x2
Chorus 3     x1
Chorus 4     x1
Outro        x1
~~~~~~~~~~~~~~~~~~~~~~~~~~~~~~~~~~~~~~~~~~~~~~~~~~~~~~~~~~~~~~~~~~~~~~~~~~~~~~~~~~~~~~~~~
Intro: Guitar 1 Only
eb-------------------------------------------------------|
Bb-------------------------------------------------------|
Gb-------------------------------------------------------|
Db------7-----9--11-------------7------6--7--------------|
Ab----4-----7----0------------4------2----0--------------|
Db--4-----7------0----------4------2------0--------------|

Verse: Guitar 1 Only
eb-------------------------------------------------------|
Bb-------------------------------------------------------|
Gb-----------------------------9\------------------------|
Db------7------9------11---11--7\------------------------|
Ab----4------7------0----0-------------------------------|
Db--4------7------0--------------------------------------|

eb-------------------------------------------------------|
Bb-------------------------------------------------------|
Gb-----------------------------9\------------------------|
Db------7------9------11---11--7\------------------------|
Ab----4------7------0----0-------------------------------|
Db--4------7------0--------------------------------------|

eb-------------------------------------------------------|
Bb-----------------------------10\-----------------------|
Gb------------------------------9\-----------------------|
Db------7------9------11---11----------------------------|
Ab----4------7------0----0-------------------------------|
Db--4------7------0--------------------------------------|

eb-------------------------------------------------------|
Bb--------------------------0----------------------------|
Gb------------------------6------------------------------|
Db------7------6--------7--------------------------------|
Ab----4------2--------0----------------------------------|
Db--4------2-----0--0------------------------------------|

Heavy Verse: Both Guitars
eb------------------------------------|
Bb------------------------------------|
Gb------------------------------------|
Db--7-7-7-7-6-6-6-6-7-7-7-7-7-7-7-7---|
Ab--4-4-4-4-2-2-2-2-0-0-0-0-0-0-0-0---|
Db--4-4-4-4-2-2-2-2-0-0-0-0-0-0-0-0---|

Chorus 1: Both Guitars
eb--------------------------------------------------------------------|
Bb--------------------------------------------------------------------|
Gb----------------------------------6-6-6-6-6-6-6-6-7-7-7-7-9-9-9-9---|
Db--7-7-7-7-9-9-7-7-4-4-4-4-6-6-4-4-4-4-4-4-4-4-4-4-5-5-5-5-7-7-7-7---|
Ab--7-7-7-7-7-7-7-7-4-4-4-4-4-4-4-4-4-4-4-4-4-4-4-4-5-5-5-5-7-7-7-7---|
Db--7-7-7-7-7-7-7-7-4-4-4-4-4-4-4-4-----------------------------------|

Chorus 2: Both Guitars
eb--------------------------------------------------------------------|
Bb--------------------------------------------------------------------|
Gb----------------------------------6-6-6-6-6-6-6-6-7-7-7-7-9-9-9-9---|
Db--7-7-x-x-7-------4-4-4-4-6-6-4-4-4-4-4-4-4-4-4-4-5-5-5-5-7-7-7-7---|
Ab--7-7-x-x-7-------4-4-4-4-4-4-4-4-4-4-4-4-4-4-4-4-5-5-5-5-7-7-7-7---|
Db--7-7-x-x-7-------4-4-4-4-4-4-4-4-----------------------------------|

Chorus 3: Both Guitars
eb---------------------------------------------------------------------|
Bb---------------------------------------------------------------------|
Gb-----------------------------------8-8-8-8-8-8-8-8-9-9-9-9-11111111--|
Db--9-9-9-9-1111-9-9-6-6-6-6-8-8-6-6-6-6-6-6-6-6-6-6-7-7-7-7-9-9-9-9---|
Ab--9-9-9-9-9-9--9-9-6-6-6-6-6-6-6-6-6-6-6-6-6-6-6-6-7-7-7-7-9-9-9-9---|
Db--9-9-9-9-9-9--9-9-6-6-6-6-6-6-6-6-----------------------------------|

Chorus 4: Both Guitars
eb---------------------------------------------------------------------|
Bb---------------------------------------------------------------------|
Gb-----------------------------------8-8-8-8-8-8-8-8-x-9-----x-11------|
Db--9-9-9-9-1111-9-9-6-6-6-6-8-8-6-6-6-6-6-6-6-6-6-6-x-7-----x-9-------|
Ab--9-9-9-9-9-9--9-9-6-6-6-6-6-6-6-6-6-6-6-6-6-6-6-6-x-7-----x-9-------|
Db--9-9-9-9-9-9--9-9-6-6-6-6-6-6-6-6-----------------------------------|

Bridge 1: Guitar 1 Only
eb-----------------------------------------------------------------------------------------------|
Bb-----------------------------------------------------------------------------------------------|
Gb-----------------------------------------------------------------------------------------------|
Db-----------------------------------------------------------------------------------------------|
Ab-12--12--12--12--11--11--11--11--14--14--14--14--12--12--12--12--16--16--16--16--14--14--14--14|
Db-----------------------------------------------------------------------------------------------|

Bridge 2: Both Guitars
eb-------------------------------------------------------------------------|
Bb-------------------------------------------------------------------------|
Gb--2----4----6----6----6/7\2--6----7----9----9----9/11\6------------------|
Db--x----x----x----x----x/x\x--x----x----x----x----x/-x\x------------------|
Ab--0----2----4----4----4/5\0--4----5----7----7----7/-9\4------------------|
Db-------------------------------------------------------------------------|

Bridge 3:
Guitar 1
eb-------------------------------------------------------------------|
Bb-------------------------------------------------------------------|
Gb-------------------------------------------------------------------|
Db-------------------------------------------------------------------|
Ab-11-11-11-11-11-11-11-11-9-9-9-9-9-9-9-9-11-11-11-11-11-11-11-12-12|
Db-------------------------------------------------------------------|

---------------------------------------------------------|
---------------------------------------------------------|
---------------------------------------------------------|
---------------------------------------------------------|
-9-9-9-9-9-9-9-9-11-11-11-11-11-11-11-11-9-9-9-9---------|
---------------------------------------------------------|

Guitar 2
eb------------------------------------------------------------------------------------------------|
Bb------------------------------------------------------------------------------------------------|
Gb-------------------------7-7-7-7-------------------------7-7-7-7-------------------------x-x-7\-|
Db-0-0-0-0-----0-0---0-0-0-x-x-x-x-0-0-0-0-----0-0---0-0-0-x-x-x-x-0-0-0-0-----0-0---0-0-0-x-x-x\-|
Ab-0-0-0-0-----0-0---0-0-0-5-5-5-5-0-0-0-0-----0-0---0-0-0-5-5-5-5-0-0-0-0-----0-0---0-0-0-x-x-5\-|
Db-0-0-0-0-----0-0---0-0-0---------0-0-0-0-----0-0---0-0-0---------0-0-0-0-----0-0---0-0-0--------|

Outro: Both Guitars
eb------------------------------------------------------------------|
Bb------------------------------------------------------------------|
Gb------------------------------------------------------------------|
Db--9-9-9-9-9-9-9-9-4-4-4-4-4-4-4-4-7-7-7-7-7-7-7-7-2-2-2-2-4-4-4-4-|
Ab--9-9-9-9-9-9-9-9-4-4-4-4-4-4-4-4-7-7-7-7-7-7-7-7-2-2-2-2-4-4-4-4-|
Db--9-9-9-9-9-9-9-9-4-4-4-4-4-4-4-4-7-7-7-7-7-7-7-7-2-2-2-2-4-4-4-4-|

eb--------------------------------------------------------------------|
Bb--------------------------------------------------------------------|
Gb--------------------------------------------------------------------|
Db--9-9-9-9-9-9-9-9-4-4-4-4-4-4-4-4-7-7-7-7-7-7-7-7-x-2-----x-4-----9-|
Ab--9-9-9-9-9-9-9-9-4-4-4-4-4-4-4-4-7-7-7-7-7-7-7-7-x-2-----x-4-----9-|
Db--9-9-9-9-9-9-9-9-4-4-4-4-4-4-4-4-7-7-7-7-7-7-7-7-x-2-----x-4-----9-|

~~~~~~~~~~~~~~~~~~~~~~~~~~~~~~~~~~~~~~~~~~~~~~~~~~~~~~~~~~~~~~~~~~~~~~~~~~~~~
Tap to rate this tab
 
# A B C D E F G H I J K L M N O P Q R S T U V W X Y Z