Song name
# A B C D E F G H I J K L M N O P Q R S T U V W X Y Z

Breaking Benjamin - Diary Of Jane tab

This is my first tab ever. I'm still learning this song (by ear), so all I have is
the intro. I hope you like this version:

e|--------------------------------|----------------------------|
B|------6-----6-----6-----6-----7-|------6-----6-----9-9-7-7-6-|
G|--3------3-----3-----3-----3--- |--3------3-----3------------|
D|--------------------------------|----------------------------| x2
A|--------------------------------|----------------------------|
E|--------------------------------|----------------------------|


e|--------------------------------|
B|------6-----6-----9-9-7-7-6-----|
G|--3------3-----3----------------|
D|--------------------------------| x3
A|--------------------------------|
E|--------------------------------|


e|----------------------|
B|------6-----6-----6b--|
G|--3------3-----3------|
D|----------------------|
A|----------------------|
E|----------------------|

e|------------------------------------------------|
B|------6-----6-----9-9-7-7-6-------6-----6-------|
G|--3------3-----3--------------3------3-----3--5b|
D|------------------------------------------------| x2
A|------------------------------------------------|
E|------------------------------------------------|

  "If I had to, I would put myself..."



Like I said, it's all I have now. But hopefully the intro is better than nothing for 
you. I hope you enjoy it. :)
Tap to rate this tab
# A B C D E F G H I J K L M N O P Q R S T U V W X Y Z