Song name
# A B C D E F G H I J K L M N O P Q R S T U V W X Y Z

Breaking Benjamin - Sugarcoat tab

intro/chorus
e(------------------------)(----------)(------)
b(------------------------)(----------)(------)
g(--------------------7-9-)(--7/5/9-9-)(--7-5-)
d(--2-20-x2-20-x2-20-x7-9-)(--7/5/9-9-)(--7-5-)
a(--2-20-x2-20-x2-20-x5-7-)(--5/3/7-7-)(--5-3-)
D(------------------------)(----------)(------)

lead
e(---------------------)
b(--3-3-3-58-3-3-3-648-)
g(--2-2-2-57-2-2-2-537-)
d(---------------------)
a(---------------------)
D(---------------------)

verse       pre-chorus
e(------)(--------------------------------------)(----------)
b(------)(--------------------------------------)(----------)
g(--9-7-)(--999-9999-999-9999-777-7777-777-7777-)(--7-5-3-2-)
d(--9-7-)(--999-9999-999-9999-777-7777-777-7777-)(--7-5-3-2-)
a(--7-5-)(--777-7777-777-7777-555-5555-555-5555-)(--5-3-1-0-)
D(------)(--------------------------------------)(----------)

solo x2
e(------------------------------------------)
b(--9-999-999-9h117-777-77/6----------------)
g(---------------------------8-888-68-888-6-)
d(------------------------------------------)
a(------------------------------------------)
D(------------------------------------------)

solo continued
e(--------------------------------)(---------------------)
b(--9-11-12-11-9-7-9-11-12-11-9-7-)(--11p9-9p7-6p5-2h3-4-)
g(--------------------------------)(---------------------)
d(--------------------------------)(---------------------)
a(--------------------------------)(---------------------)
D(--------------------------------)(---------------------)

solo continued
e(--11-11-11-11-11-11-11-11-11-11-11-11-14-14-14-11-)
b(--------------------------------------------------)
g(--------------------------------------------------)
d(--------------------------------------------------)
a(--------------------------------------------------)
D(--------------------------------------------------)
Tap to rate this tab
# A B C D E F G H I J K L M N O P Q R S T U V W X Y Z