Song name
# A B C D E F G H I J K L M N O P Q R S T U V W X Y Z

Breaking Benjamin - So Cold tab

Band: Breaking Benjamin
Song: So Cold
Tabbed by: Dean111

Intro: Clean with Reverb     X6
D|------------------------------|
A|------------------------------|
F|------------------------------|
C|----------3---------------8-7-|
G|----5---5---------10---10---8-|
C|--0---0---------0----0--------|

Optional Riff: Clean/ this can be played instead of the last two repeats above      X2
D|------------------------------------------------------------------------|
A|------------------------------------------------------------------------|
F|------------------------------------------------------------------------|
C|------------------------------------------------------------------------|
G|----8--------------7-7----------3h5-------8--------------7-7------3-5---|
C|--0---12-0-10h12-0-----10-0-3h5---------0---12-0-10h12-0-----10-0-----3-|

Intro: Distorted
D|------------------------------------------------------------------------|
A|------------------------------------------------------------------------|
F|------------------------------------------------------------------------|
C|------------------------------------------------------------------------|
G|----8--------------7-7----------3h5-------8--------------7-7------3-5---|
C|--0---12-0-10h12-0-----10-0-3h5---------0---12-0-10h12-0-----10-0-----3-|

Intro: Distorted
D|------------------------------------------------------------------------|
A|------------------------------------------------------------------------|
F|------------------------------------------------------------------------|
C|------------------------------------------------------------------3-----|
G|----8--------------7-7----------3h5-------8--------------7-7------5-3-0-|
C|--0---12-0-10h12-0-----10-0-3h5---------0---12-0-10h12-0-----10-0---3-0-|

Verse: Distorted/ don't pluck the strings just hammer on then pull off      X5
D|-------|
A|-------|
F|-------|
C|-------|
G|-h3-p0-|
C|-h3-p0-|

Chorus: Distorted
D|-------------------------------------------------------------------------|
A|-------10-----------------------------10----------------------------10---|
F|-------10-----------------------------10----------------------------10---|
C|--8----8-X10--00-00-00-00-10-10--8----8-X10--00-00-00-00-10-7--8----8-X10|
G|--8-X3-8------00-00-00-00-10-10--8-X3-8------00-00-00-00-10-7--8-X3-8----|
C|--8----8------00-00-00-00-10-10--8----8------00-00-00-00-10-7--8----8----|

Chorus: Distorted
D|-------------------------------------------------------------|
A|------------------------------------------------10----12-----|
F|--7-7-7-7-9-9-9-9-10-10-10-10-12-12-12-12-------10----12-----|
C|--x-x-x-x-x-x-x-x-x--x--x--x--x--x--x--x---8----8-X10-10-X10-|
G|--5-5-5-5-7-7-7-7-8--8--8--8--10-10-10-10--8-X3-8-----10-----|
C|--0-0-0-0-0-0-0-0-0--0--0--0--0--0--0--0---8----8-----10-----|

Interlude: Distorted
D|------------------------------------------------------------------------|
A|------------------------------------------------------------------------|
F|------------------------------------------------------------------------|
C|------------------------------------------------------------------------|
G|----8--------------7-7----------3h5-------8--------------7-7------3-5---|
C|--0---12-0-10h12-0-----10-0-3h5---------0---12-0-10h12-0-----10-0-----3-|

Interlude:
D|------------------------------------------------------------------------|
A|------------------------------------------------------------------------|
F|------------------------------------------------------------------------|
C|------------------------------------------------------------------3-----|
G|----8--------------7-7----------3h5-------8--------------7-7------5-3-0-|
C|--0---12-0-10h12-0-----10-0-3h5---------0---12-0-10h12-0-----10-0---3-0-|

Verse: Distorted same as before just hammer on and pull off      X5 
D|--------|
A|--------|
F|--------|
C|--------|
G|--h3-p0-|
C|--h3-p0-|

Chorus: Distorted
D|-------------------------------------------------------------------------|
A|-------10-----------------------------10----------------------------10---|
F|-------10-----------------------------10----------------------------10---|
C|--8----8-X10--00-00-00-00-10-10--8----8-X10--00-00-00-00-10-7--8----8-X10|
G|--8-X3-8------00-00-00-00-10-10--8-X3-8------00-00-00-00-10-7--8-X3-8----|
C|--8----8------00-00-00-00-10-10--8----8------00-00-00-00-10-7--8----8----|

Chorus: Distorted
D|-----------------------------------------------------------------|
A|------------------------------------------------10----12----9----|
F|--7-7-7-7-9-9-9-9-10-10-10-10-12-12-12-12-------10----12----9----|
C|--x-x-x-x-x-x-x-x-x--x--x--x--x--x--x--x---8----8-X10-10-X5-7-X5-|
G|--5-5-5-5-7-7-7-7-8--8--8--8--10-10-10-10--8-X3-8-----10----7----|
C|--0-0-0-0-0-0-0-0-0--0--0--0--0--0--0--0---8----8-----10----7----|

Brigde: Distorted/ this is played trough the solo      X3
D|------------------------------------------------------|
A|------------------------------------------------------|
F|------------------------------------------------------|
C|------------------------------------------------------|
G|--------5-------------5-----------5-----------3-------|
C|--0-3h5-------0-3-5-6-------0-3h5-------6p5h6---6p5h6-|

Chorus: Distorted
D|-------------------------------------------------------------------------|
A|-------10-----------------------------10----------------------------10---|
F|-------10-----------------------------10----------------------------10---|
C|--8----8-X10--00-00-00-00-10-10--8----8-X10--00-00-00-00-10-7--8----8-X10|
G|--8-X3-8------00-00-00-00-10-10--8-X3-8------00-00-00-00-10-7--8-X3-8----|
C|--8----8------00-00-00-00-10-10--8----8------00-00-00-00-10-7--8----8----|

Chorus: Distorted
D|------------------------------------------------------------------|
A|------------------------------------------------10----12----13----|
F|--7-7-7-7-9-9-9-9-10-10-10-10-12-12-12-12-------10----12----13----|
C|--x-x-x-x-x-x-x-x-x--x--x--x--x--x--x--x---8----8-X10-10-X5-11-X5-|
G|--5-5-5-5-7-7-7-7-8--8--8--8--10-10-10-10--8-X3-8-----10----11----|
C|--0-0-0-0-0-0-0-0-0--0--0--0--0--0--0--0---8----8-----10----11----|

Outro: Distorted      X4
D|-------------------------------|
A|-----10----10----10----10----8-|
F|-----10----10----10----10----9-|
C|--00----00----00----00----00---|
G|-------------------------------|
C|-------------------------------|
    ..    ..    ..    ..    ..

Outro: Distorted   
D|-----------------------------------------|
A|-----------------------------------------|
F|--7-7-7-10-10-10-9-9-9-10-10-10-10-10-10-|
C|--x-x-x-x--x--x--x-x-x-x--x--x--x--x--x--|
G|--5-5-5-8--8--8--7-7-7-8--8--8--8--8--8--|
C|-----------------------------------------|

Outro: Distorted with leslie effect
D|--------|
A|--------|
F|--------|
C|--------|
G|----8-7-|
C|--0-----|

Legend:
x= Deaden String
.= Palm mute
h= Hammer on
p= Pull off

So basically that is it i will be doing the lead guitar soon and it will include 
solo thanks for viewing
Tap to rate this tab
# A B C D E F G H I J K L M N O P Q R S T U V W X Y Z