Song name
# A B C D E F G H I J K L M N O P Q R S T U V W X Y Z

Breaking Benjamin - Medicate tab

---------------------------------------------------------------------------
			     Medicate – Breaking Benjamin
---------------------------------------------------------------------------
Tabbed by: guitardude1512
Email:

I’ve check all the Medicate tabs on here and most are close but not exact. 
This is pretty much 99.9% correct.

Tuning: Drop Db

Intro:
Eb|----------------------------------------------|
Bb|----------------------------------------------|
Gb|----------------------------------------------|
Db|-0-0-0-0--7-7-7-7---10-10-10-10--11-11-11-11--| x4
Ab|-0-0-0-0--4-4-4-4---8--8--8--8---7--7--7--7---|
Db|-0-0-0-0--4-4-4-4---8--8--8--8---7--7--7--7---|

Verse:	
	    “I’ve got something…”
Eb|----------------------------------|
Bb|----------------------------------|
Gb|----------------------------------|
Db|-----0-------0-------0------------| x4
Ab|---0-------0-------0-------0---0--|
Db|-0-----0-4-----4-8-----8-7---8----|

PreChorus:
   “…me, yeah, yeah…”
Eb|------------------------------------|
Bb|------------------------------------|
Gb|------------------------------------|
Db|-8-8-8-8-8-8-8-8-8-8-8-8-8-8-10\----| x1
Ab|-8-8-8-8-8-8-8-8-8-8-8-8-8-8-10\----|
Db|-8-8-8-8-8-8-8-8-8-8-8-8-8-8-10\----|

Chorus:
	    “Run away…”         “…make hate”
Eb|--------------------------------------------|
Bb|--------------------------------------------|
Gb|-----------------------5-5-5-5-5-5-5-5------|
Db|-3-3-3-3-3-3-3-3-------5-5-5-5-5-5-5-5------| 
Ab|-3-3-3-3-3-3-3-3-------3-3-3-3-3-3-3-3------|
Db|-3-3-3-3-3-3-3-3----------------------------|
           “…and get laid”       “…we get laid”
Eb|--------------------------------------------|
Bb|--------------------------------------------|
Gb|-7-7-7-7-7-7-7-7----------------------------|
Db|-7-7-7-7-7-7-7-7-------8-8-8-8-8-8-8-8------| whole chorus x2
Ab|-5-5-5-5-5-5-5-5-------8-8-8-8-8-8-8-8------|
Db|-----------------------8-8-8-8-8-8-8-8------|

Post Chorus:
  “…medicate…”
Eb|----------------------------------|
Bb|----------------------------------|
Gb|----------------------------------|
Db|-----0-------0-------0------------| 
Ab|---0-------0-------0-------0---0--|
Db|-0-----0-4-----4-8-----8-7---8----|

Eb|---------------------------------|
Bb|---------------------------------|
Gb|---------------------------------|
Db|-----0-------0--------------8\---| 
Ab|---0-------0----------------8\---|
Db|-0-----0-4-----4-8-8-8-8-7—-8\---|

Repeat Verse x4
Repeat Prechorus x1
Repeat Chorus x2

Bridge: same as intro

Repeat Prechorus x1
Repeat Chorus x5

End on:
eb|-----------------------|
Bb|-----------------------|
Gb|-----------------------|
Db|-3---------------------|
Ab|-3---------------------|
Db|-3---------------------|


| /  slide up
| \  slide down
| h  hammer-on
| p  pull-off
| ~  vibrato
| +  harmonic
| x  Mute note
============================================================================
Tap to rate this tab
 
# A B C D E F G H I J K L M N O P Q R S T U V W X Y Z