Breaking Benjamin - Intro tab

Guitar 1
|----------------------------------|----------------------------------|
|------3-----1-----6-----5-----3---|------3-----1-----6-----5-----3---|
|----------------------------------|----------------------------------|
|--0-------0-----0-----0-----0-----|--0-------0-----0-----0-----0-----|
|----------------------------------|----------------------------------|
|----------------------------------|----------------------------------|

|----------------------------------|----------------------------------|
|------3-----1-----6-----5-----3---|------3-----1-----6-----5-----8---|
|----------------------------------|----------------------------------|
|--0-------0-----0-----0-----0-----|--0-------0-----0-----0-----0-----|
|----------------------------------|----------------------------------|
|----------------------------------|----------------------------------|

|----------------------------------|----------------------------------|
|------3-----1-----6-----5-----3---|------6-----5-----8/10--8-----6\5-|
|----------------------------------|----------------------------------|
|--0-------0-----0-----0-----0-----|--0-------0-----0-----0-----0-----|
|----------------------------------|----------------------------------|
|----------------------------------|----------------------------------|

Guitar 2
|----------------------------------|----------------------------------|
|----------------------------------|----------------------------------|
|----------------------------------|----------------------------------|
|------7-----7-----7-----7-----7---|------7-----7-----7-----7-----7---|
|----8-----8-----8-----8-----8-----|----8-----8-----8-----8-----8-----|
|--0-----0-----0-----0-----0-------|--8-----8-----8-----8-----8-------|

|----------------------------------|----------------------------------|
|----------------------------------|----------------------------------|
|----------------------------------|----------------------------------|
|------7-----7-----7-----7-----7---|------7-----7-----7-----7---0---0-|
|----8-----8-----8-----8-----8-----|----8-----8-----8-----8-------0---|
|--0-----0-----0-----0-----0-------|--8-----8-----8-----8-----8-------|

|----------------------------------|----------------------------------|
|----------------------------------|----------------------------------|
|----------------------------------|----------------------------------|
|------8-----8-----8-----8---0---0-|----10----10---------10----10-----|
|----5-----5-----5-----5-------0---|---8-----8-----8----8-----8-----8-|
|--5-----5-----5-----5-----5-------|-8-----8-----8---10----10----10---|
Tap to rate this tab
 
# A B C D E F G H I J K L M N O P Q R S T U V W X Y Z