Song name
# A B C D E F G H I J K L M N O P Q R S T U V W X Y Z

Breaking Benjamin - Break My Fall tab

-------------------------------------------------------------------------------
			     BREAK MY FALL - Breking Benjamin
-------------------------------------------------------------------------------
Tabbed by: Danny R. "Dcflyboy"
Email: dcrindone@yahoo.com Comment or Criticize

Tuning: Standard

Tabbed directly from the song, not exactly accurate, but as close as I could,
it's my first tab...

Key:
___________________
pm:--Palm Mute
s:--Slide
b:--Bend
h:--Hammer On

Rhythm Guitar Intro:
e|-------------------------------------------------|
B|-------------------------------------------------|
G|-------------------------------------------------|
D|-------------------------------------------------| x4
A|--5--7---5pm-5pm--5--7--8--10--8-----------------|
E|--5--7---5----5-----5--7--8--10--8---------------|

e|-------|
B|-------|
G|-------|
D|--7----|
A|--7----|
E|--7----|
You fought me once but not again.

Verse 1:
e|-----------------------------------------------------|
B|-----------------------------------------------------|
G|-----------------------------------------------------|
D|-----------------------------------------------------|
A|--5--7--5pm-5pm---5--7-------------------------------|
E|--5--7--5----5-----5--7------------------------------|

e|------------------------------------------------|
B|------------------------------------------------|
G|------------------------------------------------|
D|------------------------------------------------|
A|--5--7---5pm-5pm--5--7--8--10--8----8-----------|
E|--5--7---5----5-----5--7--8--10--8----8---------|
You let me feel your heavy hand.

(Verse 1 again)

I will clean your f***ing laugh.

e|-----------------------------------------------------------------|
B|-----------------------------------------------------------------|
G|-----------------------------------------------------------------|
D|-----------------------------------------------------------------|
A|--4s-5-5---7s-5-5---4s-5-5---4s-5-5---7-8-10-10b-8---------------|
E|--4s-5-5---7s-5-5---4s-5-5---4s-5-5---7-8-10-10--8---------------|

Lead Guitar Intro: (:35)

e|--2h3-3-3----5h3-3-3----2h3-3-3-----------------|
B|------------------------------------------------|
G|------------------------------------------------|
D|------------------------------------------------|
A|------------------------------------------------|
E|------------------------------------------------|
I will clean your f***ing laugh.

The rest I was unable to tab, I would if I could, but I couldn't find the chords
in normal tuning. Enjoy.
Tap to rate this tab
# A B C D E F G H I J K L M N O P Q R S T U V W X Y Z