Song name
# A B C D E F G H I J K L M N O P Q R S T U V W X Y Z

Breaking Benjamin - Shallow Bay tab

Artist : Breaking Benjamin
Song   : Shallow Bay
Album  : Saturate
Tuning : Eb,Bb,Gb,Db,Ab,Db

Ok I am fixing up this tab. It is like 100% wrong now that I relize it. lol

Eb|--------------------------------------------|
Bb|--------------------------------------------|
Gb|--------------------------------------------|
Db|-2-5-2-0-2-2-2-2-2-2--2-5-2-0-2-2-2-2-2-20--|
Ab|-2-5-2-0-2-2-2-2-2-2--2-5-2-0-2-2-2-2-2-20--|
Db|-2-5-2-0-2-2-2-2-2-2--2-5-2-0-2-2-2-2-2-20--|


Eb|--------------------------------------------|
Bb|--------------------------------------------|
Gb|-5------------------------------------------|
Db|-5--5--0-2-0-2------------------------------|
Ab|-2--5--0-2-0-2------------------------------|
Db|----5--0-2-0-2------------------------------|
^figure out strumming for first 2 notes

Tap to rate this tab
 
# A B C D E F G H I J K L M N O P Q R S T U V W X Y Z