Song name
# A B C D E F G H I J K L M N O P Q R S T U V W X Y Z

Breaking Benjamin - Polyamorous Acoustic tab

Well, i decided to edit this because it appears kinda dodgey.. Alot!
Enjoy



Intro
Eb|---------------------------------------------------|
Bb|---------------------------------------------------|X2
Gb|---------------------------------------------------|
Db|9-9-0-12-12-0-5-5-0-5-5--9-9-0-12-12-0-5-5-0-5-5-5-|
Ab|9-9-0-12-12-0-5-5-0-5-5--9-9-0-12-12-0-5-5-0-5-5-5-|
Db|9-9-0-12-12-0-5-5-0-5-5--9-9-0-12-12-0-5-5-0-5-5-5-|

Eb|-----------------------------|
Bb|-----------------------------|
F#|-----------------------------|
C#|9-9-----------9-9------------|X3
G#|9-9-10-10-9-9-9-9-12-12-10-10|
Eb|9-9-----------9-9------------|

Verse: a bit dodgy but its something
Eb|----------------------------------|
Bb|----------------------------------|
F#|-----0-0------0-0------0-0------0-|
C#|---4---4----4---4----4---4----4-4-| X4
G#|-2-----2--------0--------0------0-|
Eb|-------0--4-----4--5-----5--2---2-|

Chorus
Eb|-----------------|
Bb|-----------------|
F#|-----------------|
C#|0--7--5-0-5-4-0-4|X2
G#|0--7--5-0-5-4-0-4|
Eb|0--7--5-0-5-4-0-4|
      then
     V V V
Eb|----------------------------|
Bb|----------------------------|
F#|----------------------------|
C#|x-xx-0---7---7---5--4--0--4-|
G#|x-xx-0---4---5---5--4--0--4-|
Eb|x-xx-0---4---5---5--4--0--4-|


Eb|-----------------------------|
Bb|-----------------------------|
F#|-----------------------------|
C#|9-9-----------9-9------------|X2
G#|9-9-10-10-9-9-9-9-12-12-10-10|
Eb|9-9-----------9-9------------|

Verse:
Eb|----------------------------------|
Bb|----------------------------------|
F#|-----0-0------0-0------0-0------0-|
C#|---4---4----4---4----4---4----4-4-| X3... or 4
G#|-2-----2--------0--------0------0-|
Eb|-------0--4-----4--5-----5--2---2-|

Chorus
Eb|-----------------|
Bb|-----------------|
F#|-----------------|
C#|0--7--5-0-5-4-0-4|X4.. i think.. you'll work it out
G#|0--7--5-0-5-4-0-4|
Eb|0--7--5-0-5-4-0-4|
      then
     V V V
Eb|----------------------------|
Bb|----------------------------|
F#|----------------------------|
C#|x-xx-0---7---7---5--4--0--4-|
G#|x-xx-0---4---5---5--4--0--4-|
Eb|x-xx-0---4---5---5--4--0--4-|

Blaah
Eb|---------------------------------------------------------------|
Bb|---------------------------------------------------------------|
F#|---------------------------------------------------------------|
C#|2-2-2-2-2-2-2-2-4-4-4-4-5-5-5-5--------------------------------|
G#|2-2-2-2-2-2-2-2-4-4-4-4-5-5-5-5-4-4-4-4-4-4-4-4-5-5-5-5-4-4-4-4|
Eb|--------------------------------4-4-4-4-4-4-4-4-5-5-5-5-4-4-4-4|


Eb|-------------------------------------------------------|
Bb|-------------------------------------------------------|
F#|-------------------------------------------------------|
C#|-------------------------------------------------------|
G#|5-5-5-5-5-5-5-5-4-4-4-4-2-2-2-2-2-2-2-2-5-5-5-5-4-4-4-4|
Eb|5-5-5-5-5-5-5-5-4-4-4-4-2-2-2-2-2-2-2-2-5-5-5-5-4-4-4-4|

Eb|-------------------------------------------------------|
Bb|-------------------------------------------------------|
F#|4-4-4-4-4-4-4-4-6-6-6-6-7-7-7-7------------------------|
C#|x-x-x-x-x-x-x-x-x-x-x-x-x-x-x-x-6-6-6-6-6-6-6-6-7-7-7-7|
G#|2-2-2-2-2-2-2-2-4-4-4-4-5-5-5-5-x-x-x-x-x-x-x-x-x-x-x-x|
Eb|--------------------------------4-4-4-4-4-4-4-4-5-5-5-5|

Eb|-----------------------|
Bb|-----------------------|
F#|-----------------------|
C#|6-6-6-6-4-4-4-4-4-4-4-4|
G#|x-x-x-x-x-x-x-x-x-x-x-x|
Eb|4-4-4-4-2-2-2-2-2-2-2-2|

Eb|-------------------------------------------------------|
Bb|-------------------------------------------------------|
F#|4-4-4-4-4-4-4-4-6-6-6-6-7-7-7-7------------------------|
C#|x-x-x-x-x-x-x-x-x-x-x-x-x-x-x-x-6-6-6-6-6-6-6-6-7-7-7-7|
G#|2-2-2-2-2-2-2-2-4-4-4-4-5-5-5-5-4-4-4-4-4-4-4-4-5-5-5-5|
Eb|--------------------------------4-4-4-4-4-4-4-4-5-5-5-5|

Eb|---------------------------------------------------------------|
Bb|---------------------------------------------------------------|
F#|4-4-4-4-4-4-4-4-6-6-6-6-7-7-7-7-6-6-6-6-6-6-6-6-7-7-7-7-9-9-9-9|
C#|x-x-x-x-x-x-x-x-x-x-x-x-x-x-x-x-x-x-x-x-x-x-x-x-x-x-x-x-x-x-x-x|
G#|2-2-2-2-2-2-2-2-4-4-4-4-5-5-5-5-4-4-4-4-4-4-4-4-5-5-5-5-7-7-7-7|
Eb|---------------------------------------------------------------|

Eb|---------------------------------------------------------------|
Bb|---------------------------------------------------------------|
F3|7-7-7-7-7-7-7-7-7-7-7-7-6-6-6-6-4-4-4-4-4-4-4-4-7-7-7-7-6-6-6-6|
C#|x-x-x-x-x-x-x-x-x-x-x-x-x-x-x-x-x-x-x-x-x-x-x-x-x-x-x-x-x-x-x-x|
G#|5-5-5-5-5-5-5-5-5-5-5-5-4-4-4-4-2-2-2-2-2-2-2-2-5-5-5-5-4-4-4-4|
Eb|---------------------------------------------------------------|

Eb|-------------------------------------------|
Bb|-------------------------------------------|
F#|-------------------------------------------|
C#|0--0--5-4-0-4-0--0--5-4-0-4-0--0--5-4-0-4-0|
G#|0--0--5-4-0-4-0--0--5-4-0-4-0--0--5-4-0-4-0|
Eb|0--0--5-4-0-4-0--0--5-4-0-4-0--0--5-4-0-4-0|

Chorus
Eb|------------------------|
Bb|------------------------|
F#|------------------------|
C#|xx-x-0--7--5-0-5-4-0-4--|X4.. i think.. you'll work it out
G#|xx-x-0--7--5-0-5-4-0-4--|
Eb|xx-x-0--7--5-0-5-4-0-4--|
      then
     V V V
Eb|----------------------------|
Bb|----------------------------|
F#|----------------------------|
C#|x-xx-0---7---7---5--4--0--4-|
G#|x-xx-0---4---5---5--4--0--4-|
Eb|x-xx-0---4---5---5--4--0--4-|

Outro
Eb|----------------------------------|
Bb|----------------------------------|
F#|----------------------------------|
C#|10-10------------10-10------------|
G#|10-10------------10-10------------|
Eb|10-10-10-10-9-9--10-10-12-12-10-10|

Finish! have fun
peace out
Tap to rate this tab
# A B C D E F G H I J K L M N O P Q R S T U V W X Y Z