Song name
# A B C D E F G H I J K L M N O P Q R S T U V W X Y Z

Breaking Benjamin - Stay Alive Forever tab

verse   
e(--------------------)
b(--8-8--8-8-3-4--3-4-)
g(--8-8--8-8-3-3--3-3-)
d(--6-6--6-6-1-1--1-1-)
a(--------------------)
E(--------------------)

verse(lead)   (x2)       (x2)
e(---------------)(------------)
b(----10-10-10-8-)(----666-444-)
g(--8------------)(--3---------)
d(---------------)(------------)
a(---------------)(------------)
E(---------------)(------------)

chorus
e(----------------------------------)
b(--8-88-8x-8-88-8x-4-44-4x-4-44-4x-)
g(--8-88-8x-8-88-8x-3-33-3x-3-33-3x-)
d(--8-88-8x-8-88-8x-3-33-3x-3-33-3x-)
a(--6-66-6x-6-66-6x-1-11-1x-1-11-1x-)
E(----------------------------------)

chorus(lead same as verse lead)

breakdown                 (x6)       (x3)
e(-------------------)(----------)(---------)
b(-------------------)(----------)(---------)
g(--8888888888888888-)(--8-8-888-)(---------)
d(--8888888888888888-)(--8-8-888-)(--666-66-)
a(--6666666666666666-)(--6-6-666-)(--666-66-)
E(--xxxxxxxxxxxxxxxx-)(----------)(--444-44-)
  pm................                     ..

solo x2
e(------------------------------------------)
b(------------------------------------------)
g(-------888-10-10-10-12-888-10-10-10-12-12-)
d(------------------------------------------)
a(------------------------------------------)
E(--14/6------------------------------------)

solo continued
e(--------------------------------------------------)
b(--------------------------------------------------)
g(--13-12-12-13-12-12-13-12-12-13-12-12-15-15-15-15-)
d(--------------------------------------------------)
a(--------------------------------------------------)
E(--------------------------------------------------)

Tap to rate this tab
# A B C D E F G H I J K L M N O P Q R S T U V W X Y Z