Guitaretab - guitar tabs
Song name
# A B C D E F G H I J K L M N O P Q R S T U V W X Y Z

Breaking Benjamin - Inertia tab

Song: Inertia
Band: Breaking Benjamin
Tabbed By: Adam Seto
Tuning: Drop D 1  step down
Source: www.no-games.com

Intro:

D#|-------------------------------------------------------------------|
A#|-------------------------------------------------------------------|
F#|-------------------------------------------------------------------|
C#|-------------------------------------------------------------------| x2
G#|------5-----3-----5-----3--------------5-----3-----5-----3---------|
C#|--0-3---0-5---0-3---0-5---0-3-6-6--0-3---0-5---0-3---0-5---0-3-7-7-|

                                                  
Verse: (Gradually release palm mute after 1st time through)

D#|-------------------------------------------------------------------|
A#|-------------------------------------------------------------------|
F#|-------------------------------------------------------------------|
C#|-------------------------------------------------------------------| x2
G#|------5-----3-----5-----3--------------5-----3-----5-----3---------|
C#|--0-3---0-5---0-3---0-5---0-3-6-6--0-3---0-5---0-3---0-5---0-3-7-7-|
p.m...................................................................

Chorus: pt. 1

D#|------------------------------------|
A#|------------------------------------|
F#|---10~----7~-----9--10~--7~---------| 
C#|---8~-----5~--x--7--8~---5~--x--2---| 
G#|---8~-----5~--x--7--8~---5~--x--2---|
C#|---8~-----5~--x--7--8~---5~--x--2---|

Chorus: pt. 2 
                                                     
D#|----------------------------------------------------------------------|
A#|--6-6-6-6-6-6-6-6-8-8-8-8-8-8-8-8-------------------------11-11-11-11-|
F#|--5-5-5-5-5-5-5-5-7-7-7-7-7-7-7-7-----------------5-5-5-5-10-10-10-10-|  
C#|--3-3-3-3-3-3-3-3-5-5-5-5-5-5-5-5-0-0-0-0-2-2-2-2-3-3-3-3-8--8--8--8--| 
G#|--3-3-3-3-3-3-3-3-5-5-5-5-5-5-5-5-0-0-0-0-2-2-2-2-3-3-3-3-8--8--8--8--|
C#|--3-3-3-3-3-3-3-3-5-5-5-5-5-5-5-5-0-0-0-0-2-2-2-2-3-3-3-3-8--8--8--8--|

D#|-------------------------------------------------|
A#|---6-6-6-6-6-6-6-6-8-8-8-8-8-8-8-8---------------|
F#|---5-5-5-5-5-5-5-5-7-7-7-7-7-7-7-7---------------|
C#|---3-3-3-3-3-3-3-3-5-5-5-5-5-5-5-5--0-/3-/8-\1---| 
G#|---3-3-3-3-3-3-3-3-5-5-5-5-5-5-5-5--0-/3-/8-\1---|
C#|---3-3-3-3-3-3-3-3-5-5-5-5-5-5-5-5--0-/3-/8-\1---|

Re-Intro:

D#|-------------------------------------------------------------------|
A#|-------------------------------------------------------------------|
F#|-------------------------------------------------------------------|
C#|-------------------------------------------------------------------|
G#|------5-----3-----5-----3--------------5-----3-----5-----3---------|
C#|--0-3---0-5---0-3---0-5---0-3-6-6--0-3---0-5---0-3---0-5---0-3-7-7-|

Verse : (Gradually release palm mute after 1st time through)

D#|-------------------------------------------------------------------|
A#|-------------------------------------------------------------------|
F#|-------------------------------------------------------------------|
C#|-------------------------------------------------------------------| x2
G#|------5-----3-----5-----3--------------5-----3-----5-----3---------|
C#|--0-3---0-5---0-3---0-5---0-3-6-6--0-3---0-5---0-3---0-5---0-3-7-7-|
p.m...................................................................

Chorus: pt. 1

D#|------------------------------------|
A#|------------------------------------|
F#|---10~----7~-----9--10~--7~---------| 
C#|---8~-----5~--x--7--8~---5~--x--2---| 
G#|---8~-----5~--x--7--8~---5~--x--2---|
C#|---8~-----5~--x--7--8~---5~--x--2---|
[ Tab from: http://www.guitaretab.com/b/breaking-benjamin/73034.html ]
Chorus: pt. 2
                                                     
D#|----------------------------------------------------------------------|
A#|--6-6-6-6-6-6-6-6-8-8-8-8-8-8-8-8-------------------------11-11-11-11-|
F#|--5-5-5-5-5-5-5-5-7-7-7-7-7-7-7-7-----------------5-5-5-5-10-10-10-10-|
C#|--3-3-3-3-3-3-3-3-5-5-5-5-5-5-5-5-0-0-0-0-2-2-2-2-3-3-3-3-8--8--8--8--| 
G#|--3-3-3-3-3-3-3-3-5-5-5-5-5-5-5-5-0-0-0-0-2-2-2-2-3-3-3-3-8--8--8--8--|
C#|--3-3-3-3-3-3-3-3-5-5-5-5-5-5-5-5-0-0-0-0-2-2-2-2-3-3-3-3-8--8--8--8--|

D#|-------------------------------------------------|
A#|---6-6-6-6-6-6-6-6-8-8-8-8-8-8-8-8---------------|
F#|---5-5-5-5-5-5-5-5-7-7-7-7-7-7-7-7---------------|
C#|---3-3-3-3-3-3-3-3-5-5-5-5-5-5-5-5--0-/3-/8-\1---| 
G#|---3-3-3-3-3-3-3-3-5-5-5-5-5-5-5-5--0-/3-/8-\1---|
C#|---3-3-3-3-3-3-3-3-5-5-5-5-5-5-5-5--0-/3-/8-\1---|

Bridge:

D#|----------------------------------------|
A#|----------------------------------------|
F#|----------------------------------------|
C#|----------------------------------------| x2
G#|-------5---------5-------5-------3------|
C#|-0-3h5---0-3-5-6---0-3h5---6-5-6---6-5h6|

D#|--------------------------------------------------|
A#|--------------------------------------------------|
F#|--------------------------------------------------| 
C#|--------7----------7--------7--------5------------| x4
G#|--0-3h5-5--0-3-5-6-5--0-3h5-5--6-5-6-3-6-5h6------|
C#|--0-3h5----0-3-5-6----0-3h5----6-5-6---6-5h6------|

Chorus: pt. 1

D#|------------------------------------|
A#|------------------------------------|
F#|---10~----7~-----9--10~--7~---------| 
C#|---8~-----5~--x--7--8~---5~--x--2---| 
G#|---8~-----5~--x--7--8~---5~--x--2---|
C#|---8~-----5~--x--7--8~---5~--x--2---|

Chorus: pt. 2
                                                     
D#|----------------------------------------------------------------------|
A#|--6-6-6-6-6-6-6-6-8-8-8-8-8-8-8-8-------------------------11-11-11-11-|
F#|--5-5-5-5-5-5-5-5-7-7-7-7-7-7-7-7-----------------5-5-5-5-10-10-10-10-|
C#|--3-3-3-3-3-3-3-3-5-5-5-5-5-5-5-5-0-0-0-0-2-2-2-2-3-3-3-3-8--8--8--8--| 
G#|--3-3-3-3-3-3-3-3-5-5-5-5-5-5-5-5-0-0-0-0-2-2-2-2-3-3-3-3-8--8--8--8--|
C#|--3-3-3-3-3-3-3-3-5-5-5-5-5-5-5-5-0-0-0-0-2-2-2-2-3-3-3-3-8--8--8--8--|

D#|------------------------------------------------------------------|
A#|---6---6-6-6---8-8-8-8-8-8---------------------------11-11-11-11--|
F#|---5---5-5-5---7-7-7-7-7-7-------------------5-5-5-5-10-10-10-10--|
C#|---3---3-3-3-x-5-5-5-5-5-5---0-0-0-0-2-2-2-2-3-3-3-3-8--8--8--8---| 
G#|---3---3-3-3-x-5-5-5-5-5-5---0-0-0-0-2-2-2-2-3-3-3-3-8--8--8--8---|
C#|---3---3-3-3-x-5-5-5-5-5-5---0-0-0-0-2-2-2-2-3-3-3-3-8--8--8--8---|

D#|-----------------------------------------------|
A#|--6-6--6-6--6-6--8-8-8-8-8-8-8-8---------------|
F#|--5-5--5-5--5-5--7-7-7-7-7-7-7-7---------------|
C#|--3-3--3-3--3-3--5-5-5-5-5-5-5-5--0-/3-/8-\1---| 
G#|--3-3--3-3--3-3--5-5-5-5-5-5-5-5--0-/3-/8-\1---|
C#|--3-3--3-3--3-3--5-5-5-5-5-5-5-5--0-/3-/8-\1---|
Intro:

D#|------------------------------------------------------------------|
A#|------------------------------------------------------------------|
F#|------------------------------------------------------------------|
C#|------------------------------------------------------------------| 
G#|------5-----3-----5-----3--------------5-----3-----5-----3--------|
C#|--0-3---0-5---0-3---0-5---0-3-6-6--0-3---0-5---0-3---0-5---0-3-7--|

D#|-------------------------------------------------------------------|
A#|-------------------------------------------------------------------|
F#|-------------------------------------------------------------------|
C#|-------------------------------------------------------------------| 
G#|------5-----3-----5-----3--------------5-----3-----5-----3---------|
C#|--0-3---0-5---0-3---0-5---0-3-6-6--0-3---0-5---0-3---0-5---0-3-7-7-|

END

Check Out my Other Breaking Benjamin tabs!:

-Who Wants to Live Forever.......4 stars

-Polyamorous (ver. 8).......5 stars 

-Home (ver. 3)........NOT RATED!!!
Related for Inertia tab