Song name
# A B C D E F G H I J K L M N O P Q R S T U V W X Y Z

Breaking Benjamin - Evil Angel tab

Breaking Benjamin
Evil Angel
Tabbed by U B the band
Tuning Bb F Bb Eb G C (Drop D tuned 2 steps down)

Legend
h-hammer on
x-scratch
p-pull off
*-harmonic

Drum Intro 00:00

Intro Guitars 1 and 2 *play 2 times* 00:04/00:12
 C|----------------------------------------|
 G|------------------------------7*--------|
Eb|---------------------------------5*-3*--|
Bb|--0h2-2-x-5p2-0h2-3p2-0h2-2-x-----------|
 F|--0h2-2-x-5p2-0h2-3p2-0h2-2-x-----------|
Bb|--0h2-2-x-5p2-0h2-3p2-0h2-2-x-----------|

Intro continued 00:08/00:16
 C|-----------------------------------12*--|
 G|------------------------------7*--------|
Eb|---------------------------------7*-----|
Bb|--0h2-2-x-5p2-0h2-3p2-0h2-2-x-----------|
 F|--0h2-2-x-5p2-0h2-3p2-0h2-2-x-----------|
Bb|--0h2-2-x-5p2-0h2-3p2-0h2-2-x-----------|

Verse 1 Guitar 1 (Ben) 00:21 clean
 C|------------------------------------------------------------|
 G|--12----13---12-10----10----12----13-----12---10----10------|
Eb|--12----12---12-11----11----12----12-----12---11----11------|
Bb|--10----10---10-12----12----10----10-----10---12----12------|
 F|------------------------------------------------------------|
Bb|------------------------------------------------------------|

Verse 1 Guitar 2 (Aaron) 00:21 Clean
 C|---------------------------------------------------------0--|
 G|------3-----3-------3-----3-----3-----3----3------3-----3---|
Eb|------------------------------------------------------------|
Bb|----2-----2-------4-----4-----2-----2-----------4-----4-----|
 F|--3-----3-------5-----5-----3-----3------3----5-----5-------|
Bb|------------------------------------------------------------|

Verse 1 Guitar 1 (Ben) 00:37 Clean
 C|-----------------------------------------------------------|
 G|------10------------10------------10------------10---------|
Eb|----12----12p11---12----12p11---11----12p11---11----12p11--|
Bb|--10----10------10----10------12----12------12----12-------|
 F|-----------------------------------------------------------|
Bb|-----------------------------------------------------------|

Verse 1 Guitar 2 (Aaron) 00:37 Clean
 C|-----------------------------------------------------------|
 G|------3-------------3-------------3-------------3----------|
Eb|-----------------------------------------------------------|
Bb|----2-------------2-------------4-------------4------------|
 F|--3-------------3-------------5-------------5--------------|
Bb|-----------------------------------------------------------|

Verse 1 Guitar 1 (Ben) 00:46 continued
 C|-----------------------------------------------------------|
 G|------10------------10------------10------------10---------|
Eb|----12----12p11---12----12p11---11----12p11---11----12p11--|
Bb|--10----10------10----10------12----12------12----12-------|
 F|-----------------------------------------------------------|
Bb|-----------------------------------------------------------|

Verse 1 Guitar 2 (Aaron) 00:46 Continued
 C|---------------------------------------------------0-------|
 G|------3-------------3------3------3-------------3----------|
Eb|-----------------------------------------------------------|
Bb|----2-------------2-------------4-------------4------------|
 F|--3-------------3------3------5-------------5--------------|
Bb|-----------------------------------------------------------|

Chorus Guitar 1 *play 2 times* 00:54/01:03
 C|-------------------------------------------------------------|
 G|-------------------------------------------------------------|
Eb|-------------------------------------------------------------|
Bb|--2--2-2-2-2---0--0-0-0-0---10--1010101010----5----5--0---0--|
 F|--2--2-2-2-2---0--0-0-0-0---10--1010101010----5----5--0---0--|
Bb|--2--2-2-2-2---0--0-0-0-0---10--1010101010----5----5--0---0--|

Chorus Guitar 2 *play 2 times* 00:54/01:03
 C|--8--88--777---8-88---777---10--10-10-10-10--------7---------|
 G|--8--88--888---8-88---888---8---8--8--8--8----8-10---10-8-7--|
Eb|-------------------------------------------------------------|
Bb|-------------------------------------------------------------|
 F|-------------------------------------------------------------|
Bb|-------------------------------------------------------------|

After Chorus Guitars and 1 and 2 01:11
 C|----------------------------------------|
 G|------------------------------7*--------|
Eb|---------------------------------5*-3*--|
Bb|--0h2-2-x-5p2-0h2-3p2-0h2-2-x-----------|
 F|--0h2-2-x-5p2-0h2-3p2-0h2-2-x-----------|
Bb|--0h2-2-x-5p2-0h2-3p2-0h2-2-x-----------|

Continued 01:15
 C|-----------------------------------12*--|
 G|------------------------------7*--------|
Eb|---------------------------------7*-----|
Bb|--0h2-2-x-5p2-0h2-3p2-0h2-2-x-----------|
 F|--0h2-2-x-5p2-0h2-3p2-0h2-2-x-----------|
Bb|--0h2-2-x-5p2-0h2-3p2-0h2-2-x-----------|

Verse 2 Guitar 1 (Ben) 01:19 clean
 C|------------------------------------------------------------|
 G|--12----13---12-10----10----12----13-----12---10----10------|
Eb|--12----12---12-11----11----12----12-----12---11----11------|
Bb|--10----10---10-12----12----10----10-----10---12----12------|
 F|------------------------------------------------------------|
Bb|------------------------------------------------------------|

Verse 2 Guitar 2 (Aaron) 01:19 Clean
 C|---------------------------------------------------------0--|
 G|------3-----3-------3-----3-----3-----3----3------3-----3---|
Eb|------------------------------------------------------------|
Bb|----2-----2-------4-----4-----2-----2-----------4-----4-----|
 F|--3-----3-------5-----5-----3-----3------3----5-----5-------|
Bb|------------------------------------------------------------|

Verse 2 Guitar 1 (Ben) 01:28 Clean
 C|-----------------------------------------------------------|
 G|------10------------10------------10------------10---------|
Eb|----12----12p11---12----12p11---11----12p11---11----12p11--|
Bb|--10----10------10----10------12----12------12----12-------|
 F|-----------------------------------------------------------|
Bb|-----------------------------------------------------------|

Verse 2 Guitar 2 (Aaron) 01:28 Clean
 C|-----------------------------------------------------------|
 G|------3-------------3-------------3-------------3----------|
Eb|-----------------------------------------------------------|
Bb|----2-------------2-------------4-------------4------------|
 F|--3-------------3-------------5-------------5--------------|
Bb|-----------------------------------------------------------|

Verse 2 Guitar 1 (Ben) 01:44 continued
 C|-----------------------------------------------------------|
 G|------10------------10------------10------------10---------|
Eb|----12----12p11---12----12p11---11----12p11---11----12p11--|
Bb|--10----10------10----10------12----12------12----12-------|
 F|-----------------------------------------------------------|
Bb|-----------------------------------------------------------|

Verse 2 Guitar 2 (Aaron) 01:44 Continued
 C|---------------------------------------------------0-------|
 G|------3-------------3------3------3-------------3----------|
Eb|-----------------------------------------------------------|
Bb|----2-------------2-------------4-------------4------------|
 F|--3-------------3------3------5-------------5--------------|
Bb|-----------------------------------------------------------|

Chorus 1 Guitar 1 *play 2 times* 01:53/02:01
 C|-------------------------------------------------------------|
 G|-------------------------------------------------------------|
Eb|-------------------------------------------------------------|
Bb|--2--2-2-2-2---0--0-0-0-0---10--1010101010----5----5--0---0--|
 F|--2--2-2-2-2---0--0-0-0-0---10--1010101010----5----5--0---0--|
Bb|--2--2-2-2-2---0--0-0-0-0---10--1010101010----5----5--0---0--|

Chorus 1 Guitar 2 *play 2 times* 01:53/02:01
 C|--8--88--777---8-88---777---10--10-10-10-10--------7---------|
 G|--8--88--888---8-88---888---8---8--8--8--8----8-10---10-8-7--|
Eb|-------------------------------------------------------------|
Bb|-------------------------------------------------------------|
 F|-------------------------------------------------------------|
Bb|-------------------------------------------------------------|

Chorus 2 Guitar 1 *play 2 times* 02:09/02:18
 C|-------------------------------------------------------------|
 G|-------------------------------------------------------------|
Eb|-------------------------------------------------------------|
Bb|--5--5-5-5-5---9--9-9-9-9---10--1010101010----5----5--0---0--|
 F|--5--5-5-5-5---9--9-9-9-9---10--1010101010----5----5--0---0--|
Bb|--5--5-5-5-5---9--9-9-9-9---10--1010101010----5----5--0---0--|

Chorus 2 Guitar 2 *play 2 times* 02:09/02:18
 C|--8--88--777---8-88---777---10--10-10-10-10--------7---------|
 G|--8--88--888---8-88---888---8---8--8--8--8----8-10---10-8-7--|
Eb|-------------------------------------------------------------|
Bb|-------------------------------------------------------------|
 F|-------------------------------------------------------------|
Bb|-------------------------------------------------------------|

Bridge Guitars 1 and 2 02:26
 C|-------------------------------------------------------------|
 G|-------------------------------------------------------------|
Eb|-------------------------------------------------------------|
Bb|--x-22--x-22--x-22-------------x-00--x-00--x-33--------------|
 F|--x-22--x-22--x-22-0-2-5-2-0-3-x-00--x-00--x-33-0-2-5-2-0-3--|
Bb|--x-22--x-22--x-22-0-2-5-2-0-3-x-00--x-00--x-33-0-2-5-2-0-3--|

Bridge Guitar 1 Solo 02:35
 C|---0--0--0--0--0--0--0--0--0--0--0--0--0--0--0--0--|
 G|--11-11-11-11-11-11-11-11-11-11-11-11-11-11-11-11--|
Eb|---------------------------------------------------|
Bb|---------------------------------------------------|
 F|---------------------------------------------------|
Bb|---------------------------------------------------|
                  ^--Gradual bend  ^--Gradually release bend

Bridge Guitar 2 02:35
 C|---------------------------------------------------|
 G|---------------------------------------------------|
Eb|---------------------------------------------------|
Bb|--x--2-2----x--2-2----x--2-2-----------------------|
 F|--x--2-2----x--2-2----x--2-2----0h2----5p2----0h3--|
Bb|--x--2-2----x--2-2----x--2-2----0h2----5p2----0h3--|

Guitar 1 Solo cont. 02:39
 C|---0--0--0--0--0--0--0--0--0--0--0--0--0--0--0--0--|
 G|--11-11-11-11-11-11-11-11-11-11-11-11-11-11-11-11--|
Eb|---------------------------------------------------|
Bb|---------------------------------------------------|
 F|---------------------------------------------------|
Bb|---------------------------------------------------|
                  ^--Gradual bend  ^--Gradually release bend

Bridge Guitar 2 02:39
 C|---------------------------------------------------|
 G|---------------------------------------------------|
Eb|---------------------------------------------------|
Bb|--x--0-0----x--0-0----x--3-3-----------------------|
 F|--x--0-0----x--0-0----x--3-3----0h2----5p2----0h3--|
Bb|--x--0-0----x--0-0----x--3-3----0h2----5p2----0h3--|

Guitar 1 solo cont. 02:43
 C|--0-0-0--0-0--0--0--0--0--0--0--0--0--0-0-0-0-0-0-------------|
 G|--8-7-8-10-8-10-12-10-12-13-12-10-12-10-8-7-8-7-5-555555555---|
Eb|--------------------------------------------------------------|
Bb|--------------------------------------------------------------|
 F|--------------------------------------------------------------|
Bb|--------------------------------------------------------------|
                                                     ^--Gradual bend

Bridge Guitar 2 02:43
 C|--------------------------------------------------------------|
 G|--------------------------------------------------------------|
Eb|--------------------------------------------------------------|
Bb|--x22--x22--x22-----------------x00--x00--x33-----------------|
 F|--x22--x22--x22--0h2--5p2--0h3--x00--x00--x33--0h2--5p2--0h3--|
Bb|--x22--x22--x22--0h2--5p2--0h3--x00--x00--x33--0h2--5p2--0h3--|

Bridge Guitar 1 02:51 Clean
 C|------------------------------------|
 G|------------------------------------|
Eb|------------------------------------|
Bb|------12----12-14------12----12-14--|
 F|----10--10-----------10--10---------|
Bb|--10------10-------10------10-------|

Chorus 3 Guitar 1 *play 2 times* 02:56/03:04
 C|-----------------------------------------------------------|
 G|-----------------------------------------------------------|
Eb|-----------------------------------------------------------|
Bb|--22--2-2222---00--0--0000---10-1010101010--5----5--0---0--|
 F|--22--2-2222---00--0--0000---10-1010101010--5----5--0---0--|
Bb|--22--2-2222---00--0--0000---10-1010101010--5----5--0---0--|

Chorus 3 Guitar 2 *play 2 times* 02:56/03:04
 C|--------777----------777-----10-1010101010-------7---------|
 G|---8-8---888----8-8---888----8--8-8-8-8-8---8-10---10-8-7--|
Eb|--9---9--------7---7---------------------------------------|
Bb|-----------------------------------------------------------|
 F|-----------------------------------------------------------|
Bb|-----------------------------------------------------------|

Chorus 2 Guitar 1 *play 2 times* 03:13/03:21
 C|-------------------------------------------------------------|
 G|-------------------------------------------------------------|
Eb|-------------------------------------------------------------|
Bb|--5--5-5-5-5---9--9-9-9-9---10--1010101010----5----5--0---0--|
 F|--5--5-5-5-5---9--9-9-9-9---10--1010101010----5----5--0---0--|
Bb|--5--5-5-5-5---9--9-9-9-9---10--1010101010----5----5--0---0--|

Chorus 2 Guitar 2 *play 2 times* 03:13/03:21
 C|--8--88--777---8-88---777---10--10-10-10-10--------7---------|
 G|--8--88--888---8-88---888---8---8--8--8--8----8-10---10-8-7--|
Eb|-------------------------------------------------------------|
Bb|-------------------------------------------------------------|
 F|-------------------------------------------------------------|
Bb|-------------------------------------------------------------|

Outro Guitars 1 and 2 03:29
 C|-----------------------------------------------|
 G|-----------------------------------------------|
Eb|-----------------------------------------------|
Bb|--x-22--x-22--x-22--x-22--x-22--x-22--x-22--2--|
 F|--x-22--x-22--x-22--x-22--x-22--x-22--x-22--2--|
Bb|--x-22--x-22--x-22--x-22--x-22--x-22--x-22--2--|

Finished
Tap to rate this tab
# A B C D E F G H I J K L M N O P Q R S T U V W X Y Z