Song name
# A B C D E F G H I J K L M N O P Q R S T U V W X Y Z

Breaking Benjamin - You Fight Me tab

Help us improve GuitareTab! Take a short survey!
Breaking Benjamin              *UPDATE 3/17/2008*
You Fight Me                   *UPDATE 3/17/2008*
Tabbed by U B the Band         *UPDATE 3/17/2008*
Tuning Bb F Bb Eb G C               *ADD IT*

Legend
()-optional
/-slide up
~-hold note
x-scratch
\-slide down
p-pull off

Piano: 00:02
 C|----------------------------------22-----|
 G|---------15--12------------17--20----19--|
Eb|-----12--12--12--------------------------|
Bb|--14---------14--------------------------|
 F|-----------------------------------------|
Bb|-----------------------------------------|

Piano: 00:12
 C|-----------------------------------------|
 G|--------15--12------------------15-------|
Eb|-----12----------------------12-----11---|
Bb|--14----------------------14-------(14)--|
 F|-----------------------------------------|
Bb|-----------------------------------------|

Guitar 1: 00:13
 C|-----------------------------------------|
 G|--5---------/17--------------------------|
Eb|-----------------------------------------|
Bb|-----------------------------------------|
 F|-----------------------------------------|
Bb|-----------------------------------------|x6

Guitar 2: 00:17
 C|-----------------------------------------|
 G|-----------------------------------------|
Eb|-----------------------------------------|
Bb|------------------2--0--2----0--0--xxxx--|
 F|------------------2--0--2----0--0--xxxx--|
Bb|------------------2--0--2----0--0--xxxx--|x6

Piano: 00:26
 C|----------------------------------14-----|
 G|-------------------------------12----15--|
Eb|-----12-14-11---------------12-----------|
Bb|--14---------------------14--------------|
 F|-----------------------------------------|
Bb|-----------------------------------------|

Piano: 00:39
 C|-----------------------------------------|
 G|-----------------------------------------|
Eb|--12-14p12-11---------------12----12-11--|
Bb|--14-------12------------14----14--------|
 F|-----------------------------------------|
Bb|-----------------------------------------|

Pre-Chorus Piano: 00:53
 C|-------0---------0---------0--------0----|
 G|--12--------12--------10--------10-------|
Eb|--12--------12--------11--------11-------|
Bb|-----------------------------------------|
 F|-----------------------------------------|
Bb|-----------------------------------------|x6

Verse/Pre-Chorus: Guitar 1: 01:00
 C|--10-\7----------------------------------|
 G|------5--------/17---------------5--/15--|
Eb|-----------------------------------------|
Bb|-----------------------------------------|
 F|-----------------------------------------|
Bb|-----------------------------------------|

Chorus: 01:09 Both Guitars
Guitar 1 comes in after slide
 C|----------------------------------------------|
 G|----------------------------------------------|
Eb|----------------------------5555555555555555--|
Bb|--222-22-22-2--222-22-22-22-5555555555555555--|
 F|--222-22-22-2--222-22-22-22-3333333333333333--|
Bb|--222-22-22-2--222-22-22-22-------------------|

Both Guitars 01:19
 C|----------------------------------------------|
 G|----------------------------------------------|
Eb|----------------------------5555555555555555--|
Bb|--222-22-22-2--222-22-22-22-5555555555555555--|
 F|--222-22-22-2--222-22-22-22-3333333333333333--|
Bb|--222-22-22-2--222-22-22-22-------------------|

 C|-----------------------------------------|
 G|-----------------------------------------|
Eb|-----------------------------------------|
Bb|--5-5-5-5-5-5-5-5-5/9-9-9-9-9---x--9-\---|
 F|--5-5-5-5-5-5-5-5-5/9-9-9-9-9---x--9-\---|
Bb|--5-5-5-5-5-5-5-5-5/9-9-9-9-9---x--9-\---|

Piano: 01:37
 C|----------------------------------15-14--|
 G|------12-15-12---12-15-14------12-12-12--|
Eb|----12-----------------------12----------|
Bb|--14-----------14-----------14-----------|
 F|-----------------------------------------|
Bb|-----------------------------------------|

Verse Guitar 1 01:37
 C|-----------------------------------------|
 G|--5---------/17--------------------------|
Eb|-----------------------------------------|
Bb|-----------------------------------------|
 F|-----------------------------------------|
Bb|-----------------------------------------|x2

Guitar 2: 01:41
 C|-----------------------------------------|
 G|-----------------------------------------|
Eb|-----------------------------------------|
Bb|------------------2--0--2----0--0--xxxx--|
 F|------------------2--0--2----0--0--xxxx--|
Bb|------------------2--0--2----0--0--xxxx--|x2

Piano: 01:37
 C|-----------------------------------------|
 G|--------12--15--12----------12--15--14---|
Eb|-----12----------------------------------|
Bb|--14---------------------14--------------|
 F|-----------------------------------------|
Bb|-----------------------------------------|

Pre-Chorus Piano: 01:51
 C|-------0---------0---------0--------0----|
 G|--12--------12--------10--------10-------|
Eb|--12--------12--------11--------11-------|
Bb|-----------------------------------------|
 F|-----------------------------------------|
Bb|-----------------------------------------|x6

Guitar 1 01:57
 C|-----------------------------------------|
 G|--15-\-12-----------(12)\----------------|
Eb|-----------------------------------------|
Bb|-----------------------------------------|
 F|-----------------------------------------|
Bb|-----------------------------------------|

Both Guitars 02:10
 C|--------------------------------------------|
 G|--------------------------------------------|
Eb|-------5-5-5-5-5-5-5-5-5-5-5-5-5-5-5-5------|
Bb|--xxxx-5-5-5-5-5-5-5-5-5-5-5-5-5-5-5-5-9-\--|
 F|--xxxx-3-3-3-3-3-3-3-3-3-3-3-3-3-3-3-3-7-\--|
Bb|--xxxx--------------------------------------|

Both Guitars 02:20
 C|-----------------------------------------|
 G|-----------------------------------------|
Eb|-------5-5-5-5-5-5-5-5-5-5-5-5-5-5-5-5---|
Bb|--xxxx-5-5-5-5-5-5-5-5-5-5-5-5-5-5-5-5---|
 F|--xxxx-3-3-3-3-3-3-3-3-3-3-3-3-3-3-3-3---|
Bb|--xxxx-----------------------------------|

Guitar 1 02:24
 C|-----------------------------------------|
 G|--------------------------------------17-|
Eb|--9---11---12---14--12---14---16---19----|
Bb|-----------------------------------------|
 F|-----------------------------------------|
Bb|-----------------------------------------|
                                          ^-tremolo pick
Guitar 2: 02:24
 C|-----------------------------------------|
 G|-----------------------------------------|
Eb|---------------------------------------5-|
Bb|--222--22--22--0p2---222--22--22--22---5-|
 F|--222--22--22--0p2---222--22--22--22---3-|
Bb|--222--22--22--0p2---222--22--22--22-----|
                                          ^-strum 32x
Guitar 1: 02:38
 C|-------------------------------------------19-19--|
 G|-------------------------------------17-20--------|
Eb|--9---11---12---14--12---14---16---19-------------|
Bb|--------------------------------------------------|
 F|--------------------------------------------------|
Bb|--------------------------------------------------|
                                         ^-tremolo pick
Guitar 2: 02:34
 C|--------------------------------------------------|
 G|--------------------------------------------------|
Eb|--------------------------------------5-----------|
Bb|--222--22--22--0p2---222--22--22--22--5-----------|
 F|--222--22--22--0p2---222--22--22--22--3-----------|
Bb|--222--22--22--0p2---222--22--22--22--------------|
                                         ^-strum 16x

Guitar 2: 02:48
 C|-----------------------------------------|
 G|-----------------------------------------|
Eb|-----------------------------------------|
Bb|--5-5-5-5-5-5-5-5-5/9-9-9-9-9---x--9-\---|
 F|--5-5-5-5-5-5-5-5-5/9-9-9-9-9---x--9-\---|
Bb|--5-5-5-5-5-5-5-5-5/9-9-9-9-9---x--9-\---|

Outro: Guitar 1:
 C|-----------------------------------------|
 G|--5---------/17--------------------------|
Eb|-----------------------------------------|
Bb|-----------------------------------------|
 F|-----------------------------------------|
Bb|-----------------------------------------|x2

Guitar 2: 01:41
 C|-----------------------------------------|
 G|-----------------------------------------|
Eb|-----------------------------------------|
Bb|------------------2--0--2----0--0--xxxx--|
 F|------------------2--0--2----0--0--xxxx--|
Bb|------------------2--0--2----0--0--xxxx--|x2

Piano: 02:52 (listen to the song)
 C|---------------------14----------15-14---|
 G|------12-15-12-------12-------15-12-12---|
Eb|----12-------------12-------12-----------|
Bb|--14-------------14-------14-------------|
 F|-----------------------------------------|
Bb|-----------------------------------------|

Piano 02:57
 C|--------22-------------------------------|
 G|--19-20----------20--19-------12h15--12--|
Eb|-----------19----16--16-------12---------|
Bb|---------------------------14------------|
 F|-----------------------------------------|
Bb|-----------------------------------------|

Piano 03:02
 C|-----------------------------------------|
 G|-----------12--------15-------12-15-14---|
Eb|-----12----12-----12-12-----12-----------|
Bb|--14----14------14--------14-------------|
 F|-----------------------------------------|
Bb|-----------------------------------------|

Finished! 
Related for You Fight Me tab