Song name
# A B C D E F G H I J K L M N O P Q R S T U V W X Y Z

Breaking Benjamin - Dance With The Devil tab

Help us improve GuitareTab! Take a short survey!
e|--------------------------------------------------------------------------|
B|--------------------------------------------------------------------------|
G|--------------------------------------------------------------------------|
D|--------------------------------------------------------------------------|
A|--5/777777777777---5/777777777777---5/777777-999999--10-10-10-10-10-10----|
E|--------------------------------------------------------------------------|

e|--------------------------------------------------------------------------|
B|--------------------------------------------------------------------------|
G|---77---------------------------------------------------------------------|
D|------10-10-99-10-10-10-10-10-10--999999-----------------------77---------|
A|-------------------------------------------10-10-10-10-10-10-------10-10--|
E|--------------------------------------------------------------------------|

e|--------------------------------------------------------------------------|
B|--------------------------------------------------------------------------|
G|--------------------------------------------------------------------------|
D|--------------------------------------------------------------------------|
A|----99--------------------------------------------------------------------|
E|--------------------------------------------------------------------------|
                           [Intro Ends]
e|--------------------------------------------------------------------------|
B|--------------------------------------------------------------------------|
G|--------------------------------------------------------------------------|
D|-----------9--7--7--9--9--9----------9--7--7--9--9--9---------------------|
A|-----------7--5--5--7--7--7----------7--5--5--7--7--7---------------------|
E|----0-0-0--------------------0-0-0----------------------------------------|
                           [Repeat Intro]
e|--------------------------------------------------------------------------|
B|--------------------------------------------------------------------------|
G|--------------------------------------------------------------------------|
D|-------9--9--9--9--9--9------9--9--9--9--9--9----5--5--5--5--5--5---------|
A|-------7--7--7--7--7--7------7--7--7--7--7--7----3--3--3--3--3--3---------|
E|--------------------------------------------------------------------------|

e|---------------------------------------------------------------------------|
B|---------------------------------------------------------------------------|
G|---------------------------------------------------------------------------|
D|-------5--5--5--5--5--5---chorus--9--9--9--7--7--7--5--5--5--5-------------|
A|-------3--3--3--3--3--3-----------7--7--7--5--5--5--3--3--3--3-------------|
E|----------------------------------0--0--0------------------------2-3-2-2-0-|

                            First tab of mine, enjoy
Related for Dance With The Devil tab