Song name
# A B C D E F G H I J K L M N O P Q R S T U V W X Y Z

Breaking Point - One Of A Kind tab

Help us improve GuitareTab! Take a short survey!
Song: One Of A Kind
Artist: Breaking Point
Tuning: Drop-D (D A D G B e)

This song is very easy to play, I was extremly suprised to not see the correct tab on 
so here it is:

Intro:

Guitar 1 Plays some Chords with a Wah Wah and Phaser pedal, I'm still not certain on 
but i think it is something like this:
e]------------------------------|
B]------------------------------|
G]------------------------------|
D]---0--5--3---0--3--2----------|
A]---0--5--3---0--3--2----------|
D]---0--5--3---0--3--2----------|

Guitar 2:
e]---------------------------------------------------------------------|
B]---------------------------------------------------------------------|
G]---------------------------------------------------------------------|
D]--0-3-3-----0-3-3----0-3-3---0-3-3--0-3-3-0-3-3-0-3-3-3-3-3-5-5-3----|
A]--0-3-3-----0-3-3----0-3-3---0-3-3--0-3-3-0-3-3-0-3-3-3-3-3-5-5-3----|
D]--0-3-3-----0-3-3----0-3-3---0-3-3--0-3-3-0-3-3-0-3-3-3-3-3-5-5-3----|
PM  * * *     * * *    * * *   * * *  * * * * * * * * * * * *

Main Riff:
This Is the Main riff, which is used in other parts of the track. To begin with both guitars play this:

e]---------------------------------------|
B]---------------------------------------|
G]---------------------------------------|
D]--0-0-0--3--0-0--3--0-0--3--3-2-1------|
A]--0-0-0--3--0-0--3--0-0--3--3-2-1------|
D]--0-0-0--3--0-0--3--0-0--3--3-2-1------|

Then Guitar 1 Comes Plays the same riff as above but with a wah wah pedal

Verse:
Guitar 1 plays the same wah wah and phaser chords as in the intro

Guitar 2:
e]-------------------------------|
B]-------------------------------|
G]-------------------------------|
D]-0-2-2----0-3--0-3b---2-2-2--3-|
A]-0-2-2----0-3--0-3b---2-2-2--3-|
D]-0-2-2----0-3--0-3b---2-2-2--3-|
PM * * *                * * *

Pre-Chorus:


e]-------------------------------------------------------|
B]-------------------------------------------------------|
G]-------------------------------------------------------|
D]---0-0--0-0-0--0-0-0--0-3-2--0-0--0-0-0--0-0-0--0-5-3--|
A]---0-0--0-0-0--0-0-0--0-3-2--0-0--0-0-0--0-0-0--0-5-3--|
D]---0-0--0-0-0--0-0-0--0-3-2--0-0--0-0-0--0-0-0--0-5-3--|

e]-----------------------------------------------------|
B]-----------------------------------------------------|
G]-----------------------------------------------------|
D]---0-0--0-0-0--0-0-0--0-3-2--0-0--0-0-0--0-0-0--0-0--|
A]---0-0--0-0-0--0-0-0--0-3-2--0-0--0-0-0--0-0-0--0-0--|
D]---0-0--0-0-0--0-0-0--0-3-2--0-0--0-0-0--0-0-0--0-0--|

chorus:
  I'm not 100% certain about this part, but it fits and sounds good
e]-----------------------------------------|
B]-----------------------------------------|
G]-----------------------------------------|
D]--0-0-0--3--0--3--2--0--2--1--0--1--1----|
A]--0-0-0--3--0--3--2--0--2--1--0--1--1----|
D]--0-0-0--3--0--3--2--0--2--1--0--1--1----|

e]---------------------------------------------|
B]---------------------------------------------|
G]---------------------------------------------|
D]--0-0-0--3--0--3--2--0--2--1--1--0--1--0--1--|
A]--0-0-0--3--0--3--2--0--2--1--1--0--1--0--1--|
D]--0-0-0--3--0--3--2--0--2--1--1--0--1--0--1--|

e]-----------------------------------------|
B]-----------------------------------------|
G]-----------------------------------------|
D]--0-0-0--3--0--3--2--0--2--1--0--1--1----|
A]--0-0-0--3--0--3--2--0--2--1--0--1--1----|
D]--0-0-0--3--0--3--2--0--2--1--0--1--1----|

e]-------------------------------------|
B]-------------------------------------|
G]-------------------------------------|
D]--0-0-0--3--0--3--2--0--2--1--0--1---|
A]--0-0-0--3--0--3--2--0--2--1--0--1---|
D]--0-0-0--3--0--3--2--0--2--1--0--1---|


- Verse

- Pre-chorus

- Chorus

- main Riff


Bridge:

e]-----|-------------------------------------|
B]-----|-------------------------------------|
G]-----|-------------------------------------|
D]-----|-------------------------------------|
A]-----|-------------------------------------|
D]-12\-|-3-0-3--2bu--0--2--1bu--0--1--0--0---|

e]----------------------------------|
B]----------------------------------|
G]----------------------------------|
D]--0-0-0--0-0-0--0-0-0--3--0--3----|
A]--0-0-0--0-0-0--0-0-0--3--0--3----|
D]--0-0-0--0-0-0--0-0-0--3--0--3----|
PM  * * *  * * *  * * *  *  *  *

- chorus

- Main Riff

- Intro

there is alot more to this song than meets the ear, this is by no means 100% correct, 
its very close.
Related for One Of A Kind tab