Song name
# A B C D E F G H I J K L M N O P Q R S T U V W X Y Z

Breaking Point - Killing With Kindness tab

Help us improve GuitareTab! Take a short survey!
Breaking Point
Killing With Kindness
Tabbed by U B the band
Tuning Db Ab Db Gb Bb Eb

Intro Guitar 1 (Piano, Left Hand)
Eb|--------------------------------------------------|
Bb|--------------------------------------------------|
Gb|--------------------------------------------------|
Db|--2-----------------------4-----------------------|
Ab|--0------------2---3------2------------3---5------|
Db|--------------------------------------------------|

Intro Guitar 2 (Piano, Right Hand)
Eb|--17-----20-19--17-20-19--17-----20-19--17-20-19--|
Bb|----20----------------------20--------------------|
Gb|--------------------------------------------------|
Db|--------------------------------------------------|
Ab|--------------------------------------------------|
Db|--------------------------------------------------|

Intro Guitar 1
Eb|--------------------------------------------------|
Bb|--------------------------------------------------|
Gb|--------------------------------------------------|
Db|--5-----------------------7-----------------------|
Ab|--3------------5---7------5---------8---7---5-----|
Db|--------------------------------------------------|

Intro Guitar 2
Eb|--17-----20-19--17-20-19--24---22---20--19--20----|
Bb|----20--------------------------------------------|
Gb|--------------------------------------------------|
Db|--------------------------------------------------|
Ab|--------------------------------------------------|
Db|--------------------------------------------------|

Intro Guitar 1 Continued
Eb|--------------------------------------------------|
Bb|--------------------------------------------------|
Gb|--------------------------------------------------|
Db|--2-----------------------4-----------------------|
Ab|--0------------2---3------2------------3---5------|
Db|--------------------------------------------------|

Intro Guitar 2 Continued
Eb|--17--17-20-19--17-20-19--17--17-20-19--17-20-19--|
Bb|----20----------------------20--------------------|
Gb|--------------------------------------------------|
Db|--------------------------------------------------|
Ab|--------------------------------------------------|
Db|--------------------------------------------------|

Intro Guitar 1
Eb|---------------------------------------------------------|
Bb|---------------------------------------------------------|
Gb|---------------------------------------------------------|
Db|--5-----------------------7------------------------------|
Ab|--3------------5---7------5------------------------------|
Db|---------------------------------------------------------|

Intro Guitar 2
Eb|--17--17-20-19--17-20-19--24--22-20-19--24--22-20-19-17--|
Bb|----20---------------------------------------------------|
Gb|---------------------------------------------------------|
Db|---------------------------------------------------------|
Ab|---------------------------------------------------------|
Db|---------------------------------------------------------|

What do you guys think so far?
Related for Killing With Kindness tab