Song name
# A B C D E F G H I J K L M N O P Q R S T U V W X Y Z

Breaking Sanity - A Million Miles tab

#----------------------------------PLEASE NOTE---------------------------------#
#This file is the author's own work and represents their interpretation of the #
#song. You may only use this file for private study, scholarship, or research. #
#------------------------------------------------------------------------------##

                                 A MILLION MILES
                           As recorded by Lostprophets
                      (From the 2004 Album START SOMETHING)

Music by Lostprophets
Transcribed by Alex

Gtr I (D A D G B E) - 'Untitled'
Gtr II (D A D G B E) - 'Untitled'
Gtr III (D A D G B E) - 'Untitled'
Gtr IV (D A D G B E) - 'Untitled'

   Intro
    Moderately Slow Rock Q=106                             1.
    F#5               D5                Bsus2              D5
   4/4
    Gtr I
    E E E E E E E E   E E E E E E E E    E E E E E E E E   E E E E E E E E
||--0---0---0---0---|-0---0---0---0---|-/7---7---7---7---|-5---5---5---5------||
||o---0---0---0---0-|---2---2---2---2-|----5---5---5---5-|---5---5---5---5\--o||
||------------------|-----------------|------------------|--------------------||
||------------------|-----------------|------------------|--------------------||
||o-----------------|-----------------|------------------|-------------------o||
||------------------|-----------------|------------------|--------------------||
|
|   Gtr II
|   W                 W                  W                 W
||------------------|-----------------|------------------|--------------------||
||o-----------------|-----------------|------------------|-------------------o||
||------------------|-----------------|------------------|--------------------||
||--4---------------|-0---------------|--9---------------|-0------------------||
||o-4---------------|-0---------------|--9---------------|-0-----------------o||
||--4---------------|-0---------------|--9---------------|-0------------------||


  2.
  D5                 F#5
   E E E E E E E E   W           W
|-/5---5---5---5---|----------|----------------|
|----5---5---5---5-|----------|----------------|
|------------------|----------|----------------|
|------------------|----------|----------------|
|------------------|----------|----------------|
|------------------|----------|----------------|
|
|  W                 W          +H.      +E. S
|------------------|----------|----------------|
|------------------|----------|----------------|
|------------------|----------|----------------|
|--0---------------|-4--------|-(4)------(4)-4-|
|--0---------------|-4--------|-(4)------(4)-4-|
|--0---------------|-4--------|-(4)------(4)-4-|


 Verse
  F#5
  S S e  S   S   S  S +S  S e  S   S   S  S   +S  S e  S   S   S  S +S  S e Q
|-------------------------------------------|----------------------------------|
|-------------------------------------------|----------------------------------|
|-------------------------------------------|----------------------------------|
|-4-4-4-------------4-(4)-4-4-------------4-|-(4)-4-4-------------4-(4)-4-4----|
|-4-4-4-------------4-(4)-4-4-------------4-|-(4)-4-4-------------4-(4)-4-4----|
|-4-4-4-<4>-<4>-<4>-4-(4)-4-4-<4>-<4>-<4>-4-|-(4)-4-4-<4>-<4>-<4>-4-(4)-4-4----|


    N.C.
     S  S  S  S  S  S  S  S  S  S  S  S  S  S  S  S
||--------------------------------------------------|
||o-------------------------------------------------|
||--11-11-11-11-11-11-11-11S13-13-13-13-13-13-13-13S|
||---x--x--x--x--x--x--x--x--x--x--x--x--x--x--x--x-|
||o--9--9--9--9--9--9--9--9S11-11-11-11-11-11-11-11S|
||--------------------------------------------------|
|
|   Gtr II
|    S  S  S  S  S  S  S  S  S  S  S  S  S  S  S  S
||--------------------------------------------------|
||o-------------------------------------------------|
||---9--9--9--9--9--9--9--9--7--7--7--7--7--7--7--7-|
||---x--x--x--x--x--x--x--x--x--x--x--x--x--x--x--x-|
||o--7--7--7--7--7--7--7--7--5--5--5--5--5--5--5--5-|
||--------------------------------------------------|


                                               F#5
   S  S  S  S  S  S  S  S  S  S  S  S  S  S  S  S
|-------------------------------------------------|
|-------------------------------------------------|
|-14-14-14-14-14-14-14-14S16-16-16-16-16-16-16-16-|
|--x--x--x--x--x--x--x--x--x--x--x--x--x--x--x--x-|
|-12-12-12-12-12-12-12-12S14-14-14-14-14-14-14-14-|
|-------------------------------------------------|
|
|  S  S  S  S  S  S  S  S  S  S  S  S  S  S  S  S
|-------------------------------------------------|
|-------------------------------------------------|
|--6--6--6--6--6--6--6--6-------------------------|
|--x--x--x--x--x--x--x--x--7--7--7--7--7--7--7--4-|
|--4--4--4--4--4--4--4--4--x--x--x--x--x--x--x--4-|
|--------------------------7--7--7--7--7--7--7--4-|


  F#5
   E    E  E       E     +H
|----------------------------------------------|
|----------------------------------------------|
|-16\-------------11----(11)-------------------|
|---------11-----------------------------------|
|-14\---9--------------------------------------|
|----------------------------------------------|
|
|  S  S e  S   S   S  S  +S  S e  S   S   S  S
|----------------------------------------------|
|----------------------------------------------|
|----------------------------------------------|
|--4--4-4-------------4--(4)-4-4-------------4-|
|--4--4-4-------------4--(4)-4-4-------------4-|
|--4--4-4-<4>-<4>-<4>-4--(4)-4-4-<4>-<4>-<4>-4-|


   +E    E  E       E    +H
|------------------------------------------------|
|------------------------------------------------|
|-(11)--------------9----(9)---------------------|
|----------11------------------------------------|
|--------9---------------------------------------|
|------------------------------------------------|
|
|  +S  S e  S   S   S  S  S  S e  S   S   S   S
|------------------------------------------------|
|------------------------------------------------|
|------------------------------------------------|
|--(4)-4-4-------------4--4--4-4-----------------|
|--(4)-4-4-------------4--4--4-4-----------------|
|--(4)-4-4-<4>-<4>-<4>-4--4--4-4-<4>-<4>-<4>-<4>-|


  D5
   S  S  S  S  S  S  S  S  S  S  S  S  S  S  S  S
|-------------------------------------------------|
|-------------------------------------------------|
|-11-11-11-11-11-11-11-11S13-13-13-13-13-13-13-13S|
|--x--x--x--x--x--x--x--x--x--x--x--x--x--x--x--x-|
|--9--9--9--9--9--9--9--9S11-11-11-11-11-11-11-11S|
|-------------------------------------------------|
|
|  S  S  S  S  S  S  S  S  S  S  S  S  S  S  S  S
|-------------------------------------------------|
|-------------------------------------------------|
|-------------------------------------------------|
|--0--0--0--0--0--0--0--0--0--0--0--0--0--0--0--0-|
|--0--0--0--0--0--0--0--0--0--0--0--0--0--0--0--0-|
|--0--0--0--0--0--0--0--0--0--0--0--0--0--0--0--0-|


                                         F#5
   S  S  S  S  S  S  S  S  S S S S S S S S
|-------------------------------------------|
|-------------------------------------------|
|-14-14-14-14-14-14-14-14\-9-9-9-9-9-9-9-9--|
|--x--x--x--x--x--x--x--x--x-x-x-x-x-x-x-x--|
|-12-12-12-12-12-12-12-12\-7-7-7-7-7-7-7-7--|
|-------------------------------------------|
|
|  S  S  S  S  S  S  S  S  S S S S S S S S
|-------------------------------------------|
|-------------------------------------------|
|-------------------------------------------|
|--0--0--0--0--0--0--0--0--0-0-0-0-0-0-0-4--|
|--0--0--0--0--0--0--0--0--0-0-0-0-0-0-0-4--|
|--0--0--0--0--0--0--0--0--0-0-0-0-0-0-0-4--|


  F#5
  E   E  E       E     +H
|--------------------------------------------|
|--------------------------------------------|
|-9-------------11----(11)-------------------|
|-------11-----------------------------------|
|-7---9--------------------------------------|
|--------------------------------------------|
|
| Gtr II
| S S e  S   S   S  S  +S  S e  S   S   S  S
|--------------------------------------------|
|--------------------------------------------|
|--------------------------------------------|
|-4-4-4-------------4--(4)-4-4-------------4-|
|-4-4-4-------------4--(4)-4-4-------------4-|
|-4-4-4-<4>-<4>-<4>-4--(4)-4-4-<4>-<4>-<4>-4-|


   +E    E  E       E    E   E  Q
|----------------------------------------------|
|------------------------9---------------------|
|-(11)--------------9--------9-----------------|
|----------11------------------11--------------|
|--------9-------------------------------------|
|----------------------------------------------|
|
|  +S  S e  S   S   S  S S S e  S   S   S   S
|----------------------------------------------|
|----------------------------------------------|
|----------------------------------------------|
|--(4)-4-4-------------4-4-4-4-----------------|
|--(4)-4-4-------------4-4-4-4-----------------|
|--(4)-4-4-<4>-<4>-<4>-4-4-4-4-<4>-<4>-<4>-<4>-|


  N.C.
   PM----------------------------------------------
   S  S  S  S  S  S  S  S  S  S  S  S  S  S  S  S
|-------------------------------------------------|
|--9--9--9-------------12-12-----9----------------|
|--------------9--9-----------------9-----9--9--9-|
|----------11-------11-------11-------11----------|
|-------------------------------------------------|
|-------------------------------------------------|
|
|  S  S  S  S  S  S  S  S  S  S  S  S  S  S  S  S
|-------------------------------------------------|
|-------------------------------------------------|
|-11-11-11-11-11-11-11-11S13-13-13-13-13-13-13-13S|
|--x--x--x--x--x--x--x--x--x--x--x--x--x--x--x--x-|
|--9--9--9--9--9--9--9--9S11-11-11-11-11-11-11-11S|
|-------------------------------------------------|


 -------------------------------------------|
   S  S  S  S  S  S  S  S   S  S S S  S S S S
|----------------------------------------------|
|--9--9--9-------------12--12----9-------------|
|--------------9--9----------------9----9-9-9--|
|----------11-------11--------11-----11--------|
|----------------------------------------------|
|----------------------------------------------|
|
|  S  S  S  S  S  S  S  S   S  S S S  S S S S
|----------------------------------------------|
|----------------------------------------------|
|-14-14-14-14-14-14-14-14\--9--9-9-9--9-9-9-9--|
|--x--x--x--x--x--x--x--x---x--x-x-x--x-x-x-x--|
|-12-12-12-12-12-12-12-12\--7--7-7-7--7-7-7-7--|
|----------------------------------------------|


  F#5
  E   E  E       E     +H
|--------------------------------------------|
|--------------------------------------------|
|---------------11----(11)-------------------|
|-------11-----------------------------------|
|-----9--------------------------------------|
|--------------------------------------------|
|
| S S e  S   S   S  S  +S  S e  S   S   S  S
|--------------------------------------------|
|--------------------------------------------|
|--------------------------------------------|
|-4-4-4-------------4--(4)-4-4-------------4-|
|-4-4-4-------------4--(4)-4-4-------------4-|
|-4-4-4-<4>-<4>-<4>-4--(4)-4-4-<4>-<4>-<4>-4-|


   +E    E  E       E    +H
|------------------------------------------------|
|------------------------------------------------|
|-(11)--------------9----(9)---------------------|
|----------11------------------------------------|
|--------9---------------------------------------|
|------------------------------------------------|
|
|  +S  S e  S   S   S  S  S  S e  S   S   S   S
|------------------------------------------------|
|------------------------------------------------|
|------------------------------------------------|
|--(4)-4-4-------------4--4--4-4-----------------|
|--(4)-4-4-------------4--4--4-4-----------------|
|--(4)-4-4-<4>-<4>-<4>-4--4--4-4-<4>-<4>-<4>-<4>-|


 Pre-Chorus
  N.C.
   S  S  S  S  S  S  S  S  S  S  S  S  S  S  S  S
|-------------------------------------------------|
|-------------------------------------------------|
|-11-11-11-11-11-11-11-11S13-13-13-13-13-13-13-13S|
|--x--x--x--x--x--x--x--x--x--x--x--x--x--x--x--x-|
|--9--9--9--9--9--9--9--9S11-11-11-11-11-11-11-11S|
|-------------------------------------------------|
|
|  W
|-------------------------------------------------|
|-------------------------------------------------|
|-------------------------------------------------|
|-------------------------------------------------|
|-------------------------------------------------|
|-------------------------------------------------|


  D5                                                N.C.              D5
                                                   2/4
                                                       PM----------|
   S  S  S  S  S  S  S  S  S  S  S  S  S  S  S  S    S S S  S S  S  S S
|-------------------------------------------------|---------------------|
|-------------------------------------------------|----9----------------|
|-14-14-14-14-14-14-14-14S16-16-16-16-16-16-16-16-|-16---9----9--9----9-|
|--x--x--x--x--x--x--x--x--x--x--x--x--x--x--x--x-|--------11------11---|
|-12-12-12-12-12-12-12-12S14-14-14-14-14-14-14-14-|-14------------------|
|-------------------------------------------------|---------------------|
|
|                          PM---------------|
|  S  S  S  S  S  S  S  S  S  S  S  S  S  S  S  S    Q        E.      S
|-------------------------------------------------|---------------------|
|-------------------------------------------------|---------------------|
|-------------------------------------------------|---------------------|
|--0--0--0--0--0--0--0--0--0--0--0--0--0--0--0--0-|-------------------0-|
|--0--0--0--0--0--0--0--0--0--0--0--0--0--0--0--0-|-------------------0-|
|--0--0--0--0--0--0--0--0--0--0--0--0--0--0--0--0-|-------------------0-|


 Chorus
  D5              F#5                  E5
 4/4
    PM--------------------------|
  S S S  S S S  S  S  S   S S S  S S S S
|----------------------------------------|
|---9-------------12-12-----9------9-9-9-|
|-9---9----9-9----------------9----------|
|-------11-----11--------11-----11-------|
|----------------------------------------|
|----------------------------------------|
|
| S S E    S S  S  S +S   S E    S S S S
|----------------------------------------|
|----------------------------------------|
|----------------------------------------|
|-0-0-0----0-0--0--4-(4)--4-4----4-4-4-2-|
|-0-0-0----0-0--0--4-(4)--4-4----4-4-4-2-|
|-0-0-0----0-0--0--4-(4)--4-4----4-4-4-2-|


                    A5          B5         D5
   PM---------------------------|
   S  S S  S S S  S  S  S   S S S  S  S  S S
|--------------------------------------------|
|--9--9-------------12-12-----9-------9-12-9-|
|-------9----9-9----------------9--x---------|
|---------11-----11--------11----------------|
|--------------------------------------------|
|--------------------------------------------|
|
| +S  S E    S S  S  S +S   S S S +S  S  S S
|--------------------------------------------|
|--------------------------------------------|
|--------------------------------------------|
|-(2)-2-2----2-2--2--7-(7)--7-7-9-(9)-9--9-0-|
|-(2)-2-2----2-2--2--7-(7)--7-7-9-(9)-9--9-0-|
|-(2)-2-2----2-2--2--7-(7)--7-7-9-(9)-9--9-0-|


                    F#5                  E5
      PM------------------------------------
   S  S S  S S S  S  S  S   S S S  S S S S
|------------------------------------------|
|--9--9-------------12--------9------9---9-|
|-------9----9-9--------9-------9------9---|
|---------11-----11--------11-----11-------|
|------------------------------------------|
|------------------------------------------|
|
| +S  S E    S S  S  S +S   S E    S S S S
|------------------------------------------|
|------------------------------------------|
|------------------------------------------|
|-(0)-0-0----0-0--0--4-(4)--4-4----4-4-4-2-|
|-(0)-0-0----0-0--0--4-(4)--4-4----4-4-4-2-|
|-(0)-0-0----0-0--0--4-(4)--4-4----4-4-4-2-|


                    A5       B5  D5
 -------------------|
   S  S S  S S S  S  S S S S S S  E.
|------------------------------------|
|--9--9------------------------------|
|-------9----9-9---------------------|
|---------11-----11-11-7-7---9---12--|
|----------------------7-7---9---12--|
|----------------------7-7---9---12--|
|
| +S  S E    S S  S  S S S S S S  E.
|------------------------------------|
|------------------------------------|
|------------------------------------|
|-(2)-2-2----2-2--2--7-7-7---9---12--|
|-(2)-2-2----2-2--2--7-7-7---9---12--|
|-(2)-2-2----2-2--2--7-7-7---9---12--|


  D5              F#5
    PM-------------------------|
  S S S  S S S  S  S  S  S S S  S S  S S
|----------------------------------------|
|---9-------------12-12----9------9--9-9-|
|-----9----9-9---------------9-----------|
|-------11-----11-------11-----11--------|
|----------------------------------------|
|----------------------------------------|
|
| PM|
| S S E    S E     S  S  S S S  S E.
|----------------------------------------|
|----------------------------------------|
|----------------------------------------|
|-0-0-0----0-0-----4--4--4-4-4--4-4------|
|-0-0-0----0-0-----4--4--4-4-4--4-4------|
|-0-0-0----0-0-----4--4--4-4-4--4-4------|


  E5              A5           B5
    PM-----------------------|
  S S S  S S S  S  S  S  S S S  S  S  S  S
|-------------------------------------------|
|-9-9-------------12-12----9---12s14s12s14--|
|-----9----9-9---------------9--------------|
|-------11-----11-------11------------------|
|-------------------------------------------|
|-------------------------------------------|
|
| PM|
| S S E    S E     S  S  S S S  S  S  E
|-------------------------------------------|
|-------------------------------------------|
|-------------------------------------------|
|-2-2-2----2-2-----7--7--7-7-7--9--9--9-----|
|-2-2-2----2-2-----7--7--7-7-7--9--9--9-----|
|-2-2-2----2-2-----7--7--7-7-7--9--9--9-----|


  D5               F#5
     PM-----------------------------------
   S S S  S S S  S  S S  S S S  S S  S S
|----------------------------------------|
|-14S9-------------12------9------9----9-|
|------9----9-9-------9------9-------9---|
|--------11-----11------11-----11--------|
|----------------------------------------|
|----------------------------------------|
|
|  PM|
|  S S E    S E     S S  S S S  S E.
|----------------------------------------|
|----------------------------------------|
|----------------------------------------|
|--0-0-0----0-0-----4-4--4-4-4--4-4------|
|--0-0-0----0-0-----4-4--4-4-4--4-4------|
|--0-0-0----0-0-----4-4--4-4-4--4-4------|


  E5                A5    B5  D5 F#5
 -----------------|
  S S S  S S S  S S S S S S S  E  +S
|--------------------------------------|
|-9-9----------------------------------|
|-----9----9-9-------------------------|
|-------11-----11---7-7---9---12-(12)\-|
|-----------------0-7-7---9---12-(12)\-|
|-----------------0-7-7---9---12-(12)\-|
|
| PM|
| S S E    S E    S S S S S S  E   S
|--------------------------------------|
|--------------------------------------|
|--------------------------------------|
|-2-2-2----2-2----2-7-7---9---12---4---|
|-2-2-2----2-2----2-7-7---9---12---4---|
|-2-2-2----2-2----2-7-7---9---12---4---|


 Verse 2
  1.
  F#5
   S  S E  E       E     +H
|----------------------------------------------|
|----------------------------------------------|
|-----------------11----(11)-------------------|
|-\4\-----11-----------------------------------|
|-\4\---9--------------------------------------|
|-\4\------------------------------------------|
|
| Gtr II
|  S  S e  S   S   S  S  +S  S e  S   S   S  S
|----------------------------------------------|
|----------------------------------------------|
|----------------------------------------------|
|--4--4-4-------------4--(4)-4-4-------------4-|
|--4--4-4-------------4--(4)-4-4-------------4-|
|--4--4-4-<4>-<4>-<4>-4--(4)-4-4-<4>-<4>-<4>-4-|


   +E    E  E       E    +H
|-------------------------------------------------||
|------------------------------------------------o||
|-(11)--------------9----(9)----------------------||
|----------11-------------------------------------||
|--------9---------------------------------------o||
|-------------------------------------------------||
|
|  +S  S e  S   S   S  S  S  S e  S   S   S   S
|-------------------------------------------------||
|------------------------------------------------o||
|-------------------------------------------------||
|--(4)-4-4-------------4--4--4-4------------------||
|--(4)-4-4-------------4--4--4-4-----------------o||
|--(4)-4-4-<4>-<4>-<4>-4--4--4-4-<4>-<4>-<4>-<4>--||


 Interlude
  2.
  F#5                        D5
  Gtr III
   E  E  E  E  E   E  E  E    E  E  E  E  E  E  E  E
|-12----12----12-----12----|-12----12----12----12----|
|----12----12-----12----12-|----14----14----14----14-|
|--------------------------|-------------------------|
|--------------------------|-------------------------|
|--------------------------|-------------------------|
|--------------------------|-------------------------|
|
|  >
|  H          +H              W
|--------------------------|-------------------------|
|--7----------(7)----------|-------------------------|
|--6----------(6)----------|--2----------------------|
|--4----------(4)----------|--0----------------------|
|--4----------(4)----------|--0----------------------|
|--4----------(4)----------|--0----------------------|


  B5                        G5    F#5   A5    F#5
   E  E  E  E  E  E  E  E    E  E  E  E  E  E  E  E
|----19----19----19----19-|----17----17----17----17--|
|-17----17----17----17----|-17----17----17----17-----|
|-------------------------|--------------------------|
|-------------------------|--------------------------|
|-------------------------|--------------------------|
|-------------------------|--------------------------|
|
|  W                         Q     Q     Q     Q
|-------------------------|--------------------------|
|-------------------------|--------------------------|
|-------------------------|--7-----6-----9-----6-----|
|--9----------------------|--5-----4-----7-----4-----|
|--9----------------------|--5-----4-----7-----4-----|
|--9----------------------|--5-----4-----7-----4-----|


  F#5                       D5                        F#5/B
   E  E  E  E  E  E  E  E    E  E  E  E  E  E  E  E    E  E  E  E  E  E  E  E
|-12----12----12----12----|-12----12----12----12----|----19----19----19----19-|
|----12----12----12----12-|----14----14----14----14-|-17----17----17----17----|
|-------------------------|-------------------------|-------------------------|
|-------------------------|-------------------------|-------------------------|
|-------------------------|-------------------------|-------------------------|
|-------------------------|-------------------------|-------------------------|
|
|  W                         W                         W
|-------------------------|-------------------------|-------------------------|
|-------------------------|-------------------------|-------------------------|
|-------------------------|--2----------------------|--6----------------------|
|--4----------------------|--0----------------------|--4----------------------|
|--4----------------------|--0----------------------|--2----------------------|
|--4----------------------|--0----------------------|-------------------------|


  G5    A5    B5    C#5     N.C.
   E  E  E  E  E  E  E  E   W
|----17----17----17----17-|--------------------------------------|
|-17----17----17----17----|--------------------------------------|
|-------------------------|--------------------------------------|
|-------------------------|--------------------------------------|
|-------------------------|--------------------------------------|
|-------------------------|--------------------------------------|
|
|  Q     Q     Q     Q      W
|-------------------------|--------------------------------------|
|-------------------------|--------------------------------------|
|--7-----9----11----13----|--------------------------------------|
|--5-----7-----9----11----|--------------------------------------|
|--5-----7-----9----11----|--------------------------------------|
|--5-----7-----9----11----|--------------------------------------|
|
| Gtr I
|                               PM-------|        PM--|
|  W                        S S S  S S S  S S +S  S S  S S S S S
|-------------------------|--------------------------------------|
|-------------------------|---9-------------------9--------------|
|-------------------------|-----9----9-9----9-(9)---9----9-9-9-9-|
|-------------------------|-------11-----11-----------11---------|
|-------------------------|--------------------------------------|
|-------------------------|--------------------------------------|


 Chorus
  D5              F#5                  E5
  Gtr I
    PM--------------------------|
  S S S  S S S  S  S  S   S S S  S S S S
|----------------------------------------|
|---9-------------12-12-----9------9-9-9-|
|-9---9----9-9----------------9----------|
|-------11-----11--------11-----11-------|
|----------------------------------------|
|----------------------------------------|
|
| Gtr II
| S S E    S S  S  S +S   S E    S S S S
|----------------------------------------|
|----------------------------------------|
|----------------------------------------|
|-0-0-0----0-0--0--4-(4)--4-4----4-4-4-2-|
|-0-0-0----0-0--0--4-(4)--4-4----4-4-4-2-|
|-0-0-0----0-0--0--4-(4)--4-4----4-4-4-2-|


                    A5          B5         D5
   PM---------------------------|
   S  S S  S S S  S  S  S   S S S  S  S  S S
|---------------------------------------------|
|--9--9-------------12-12-----9-------9-12-9--|
|-------9----9-9----------------9--x----------|
|---------11-----11--------11-----------------|
|---------------------------------------------|
|---------------------------------------------|
|
| +S  S E    S S  S  S +S   S S S +S  S  S S
|---------------------------------------------|
|---------------------------------------------|
|---------------------------------------------|
|-(2)-2-2----2-2--2--7-(7)--7-7-9-(9)-9--9-0--|
|-(2)-2-2----2-2--2--7-(7)--7-7-9-(9)-9--9-0--|
|-(2)-2-2----2-2--2--7-(7)--7-7-9-(9)-9--9-0--|


                  F#5                  E5                    A5       B5  D5
    PM-------------------------------------------------------|
  S S S  S S S  S  S  S   S S S  S S S S    S  S S  S S S  S  S S S S S S  E.
|----------------------------------------|------------------------------------|
|-9-9-------------12--------9------9---9-|--9--9------------------------------|
|-----9----9-9--------9-------9------9---|-------9----9-9---------------------|
|-------11-----11--------11-----11-------|---------11-----11-11-7-7---9---12--|
|----------------------------------------|----------------------7-7---9---12--|
|----------------------------------------|----------------------7-7---9---12--|
|
| S S E    S S  S  S +S   S E    S S S S   +S  S E    S S  S  S S S S S S  E.
|----------------------------------------|------------------------------------|
|----------------------------------------|------------------------------------|
|----------------------------------------|------------------------------------|
|-0-0-0----0-0--0--4-(4)--4-4----4-4-4-2-|-(2)-2-2----2-2--2--7-7-7---9---12--|
|-0-0-0----0-0--0--4-(4)--4-4----4-4-4-2-|-(2)-2-2----2-2--2--7-7-7---9---12--|
|-0-0-0----0-0--0--4-(4)--4-4----4-4-4-2-|-(2)-2-2----2-2--2--7-7-7---9---12--|


  D5              F#5
    PM-------------------------|
  S S S  S S S  S  S  S  S S S  S S  S S
|----------------------------------------|
|---9-------------12-12----9------9--9-9-|
|-----9----9-9---------------9-----------|
|-------11-----11-------11-----11--------|
|----------------------------------------|
|----------------------------------------|
|
| PM|
| S S E    S E     S  S  S S S  S E.
|----------------------------------------|
|----------------------------------------|
|----------------------------------------|
|-0-0-0----0-0-----4--4--4-4-4--4-4------|
|-0-0-0----0-0-----4--4--4-4-4--4-4------|
|-0-0-0----0-0-----4--4--4-4-4--4-4------|


  E5              A5           B5
    PM-----------------------|
  S S S  S S S  S  S  S  S S S  S  S  S  S
|-------------------------------------------|
|-9-9-------------12-12----9---12s14s12s14--|
|-----9----9-9---------------9--------------|
|-------11-----11-------11------------------|
|-------------------------------------------|
|-------------------------------------------|
|
| PM|
| S S E    S E     S  S  S S S  S  S  E
|-------------------------------------------|
|-------------------------------------------|
|-------------------------------------------|
|-2-2-2----2-2-----7--7--7-7-7--9--9--9-----|
|-2-2-2----2-2-----7--7--7-7-7--9--9--9-----|
|-2-2-2----2-2-----7--7--7-7-7--9--9--9-----|


  D5               F#5
     PM-----------------------------------
   S S S  S S S  S  S S  S S S  S S  S S
|----------------------------------------|
|-14S9-------------12------9------9----9-|
|------9----9-9-------9------9-------9---|
|--------11-----11------11-----11--------|
|----------------------------------------|
|----------------------------------------|
|
|  PM|
|  S S E    S E     S S  S S S  S E.
|----------------------------------------|
|----------------------------------------|
|----------------------------------------|
|--0-0-0----0-0-----4-4--4-4-4--4-4------|
|--0-0-0----0-0-----4-4--4-4-4--4-4------|
|--0-0-0----0-0-----4-4--4-4-4--4-4------|


  E5                A5    B5  D5 F#5
 -----------------|
  S S S  S S S  S S S S S S S  E  +S
|--------------------------------------|
|-9-9----------------------------------|
|-----9----9-9-------------------------|
|-------11-----11---7-7---9---12-(12)\-|
|-----------------0-7-7---9---12-(12)\-|
|-----------------0-7-7---9---12-(12)\-|
|
| PM|
| S S E    S E    S S S S S S  E   S
|--------------------------------------|
|--------------------------------------|
|--------------------------------------|
|-2-2-2----2-2----2-7-7---9---12---4---|
|-2-2-2----2-2----2-7-7---9---12---4---|
|-2-2-2----2-2----2-7-7---9---12---4---|


 Outro
  D5              F#5                  E5
    PM--------------------------|
  S S S  S S S  S  S  S   S S S  S S S S
|----------------------------------------|
|---9-------------12-12-----9------9-9-9-|
|-----9----9-9----------------9----------|
|-------11-----11--------11-----11-------|
|----------------------------------------|
|----------------------------------------|
|
| PM|                                PM
| S S S  S S S  S  S +S   S S S  S S S S
|----------------------------------------|
|----------------------------------------|
|----------------------------------------|
|-0-0-0--0-0-0--0--4-(4)--4-4-4--4-4-4-2-|
|-0-0-0--0-0-0--0--4-(4)--4-4-4--4-4-4-2-|
|-0-0-0--0-0-0--0--4-(4)--4-4-4--4-4-4-2-|


                    A5         B5         D5
        PM---------------------|
   S  S S  S S S  S  S  S  S S S S   S  S  S
|---------------------------------------------|
|--9--9-------------12-12----9-----/14-17-14--|
|-------9----9-9---------------9-x------------|
|---------11-----11-------11------------------|
|---------------------------------------------|
|---------------------------------------------|
|
| +S  S S  S S S  S  S  S  S S S S   S  S  S
|---------------------------------------------|
|---------------------------------------------|
|---------------------------------------------|
|-(2)-2-2--2-2-2--2--7--7--7-7-9-9---9--9--0--|
|-(2)-2-2--2-2-2--2--7--7--7-7-9-9---9--9--0--|
|-(2)-2-2--2-2-2--2--7--7--7-7-9-9---9--9--0--|


                    F#5                  E5
        PM------------------------|
   S  S S  S S S  S  S  S   S S S  S S S S
|------------------------------------------|
|-14\-9-------------12-12-----9------9-9-9-|
|-------9----9-9----------------9----------|
|---------11-----11--------11-----11-------|
|------------------------------------------|
|------------------------------------------|
|
| +S  S E    S S  S  S +S   S E    S S S S
|------------------------------------------|
|------------------------------------------|
|------------------------------------------|
|-(0)-0-0----0-0--0--4-(4)--4-4----4-4-4-2-|
|-(0)-0-0----0-0--0--4-(4)--4-4----4-4-4-2-|
|-(0)-0-0----0-0--0--4-(4)--4-4----4-4-4-2-|


                    A5        B5   D5
        PM----------------------|      PM
   S  S S  S S S  S  S S  S S S  S  S  S S
|-------------------------------------------|
|--9--9-------------12------9-------9----9--|
|-------9----9-9-------9------9--------9----|
|---------11-----11------11-----11----------|
|-------------------------------------------|
|-------------------------------------------|
|
| +S  S E    S S  S  S S  S S S  S  E.
|-------------------------------------------|
|-------------------------------------------|
|-------------------------------------------|
|-(2)-2-2----2-2--2--7-7--7---9----12-------|
|-(2)-2-2----2-2--2--7-7--7---9----12-------|
|-(2)-2-2----2-2--2--7-7--7---9----12-------|


  D5
      PM|               PM--|                PM|               PM--|
  S S S  S S S  S S +S  S S  S S S E   +S  S S  S S S  S S +S  S S  S S S  E
|------------------------------------|---------------------------------------|
|-9-9-------------------9------------|-----9-------------------9-------------|
|-----9----9-9----9-(9)---9----9-9-9-|-(9)---9----9-9----9-(9)---9----9-9-11-|
|-------11-----11-----------11-------|---------11-----11-----------11--------|
|------------------------------------|---------------------------------------|
|------------------------------------|---------------------------------------|
|
| W                                    +W
|------------------------------------|---------------------------------------|
|------------------------------------|---------------------------------------|
|------------------------------------|---------------------------------------|
|-0----------------------------------|-(0)-----------------------------------|
|-0----------------------------------|-(0)-----------------------------------|
|-0----------------------------------|-(0)-----------------------------------|


    N.C.
        PM|               PM--|
    S S S  S S S  S S +S  S S  S S S  E
||--------------------------------------|
||o---9-------------------9-------------|
||--9---9----9-9----9-(9)---9----9-9-11-|
||--------11-----11-----------11--------|
||o-------------------------------------|
||--------------------------------------|


      PM|               PM--|
  S S S  S S S  S S +S  S S  S S S  E  5x
|--------------------------------------||
|---9-------------------9-------------o||
|-9---9----9-9----9-(9)---9----9-9-11--||
|-------11-----11-----------11---------||
|-------------------------------------o||
|--------------------------------------||


Duration Legend
---------------
W - whole; H - half; Q - quarter; E - 8th; S - 16th; T - 32nd; X - 64th; a - acciaccatura
+ - note tied to previous; . - note dotted; .. - note double dotted
Uncapitalized letters represent notes that are staccato (1/2 duration)
Irregular groupings are notated above the duration line
Duration letters will always appear directly above the note/fret number it represents the
duration for.  Duration letters with no fret number below them represent rests.  Multi-
bar rests are notated in the form Wxn, where n is the number of bars to rest for.  Low
melody durations appear below the staff

Tablature Legend
----------------
 h   - hammer-on
 p   - pull-off
 b   - bend
 pb  - pre-bend
 r   - bend release (if no number after the r, then release immediately)
 /\  - slide into or out of (from/to "nowhere")
 s   - legato slide
 S   - shift slide
  - natural harmonic
[n]  - artificial harmonic
n(n) - tapped harmonic
 ~   - vibrato
 tr  - trill
 T   - tap
 TP  - trem. picking
 PM  - palm muting
\n/  - tremolo bar dip; n = amount to dip
 \n  - tremolo bar down
 n/  - tremolo bar up
/n\  - tremolo bar inverted dip
 =   - hold bend; also acts as connecting device for hammers/pulls
 <>  - volume swell (louder/softer)
 x   - on rhythm slash represents muted slash
 o   - on rhythm slash represents single note slash

Misc Legend
-----------
 |  - bar
||  - double bar
||o - repeat start
o|| - repeat end
*|  - double bar (ending)
 :  - bar (freetime)
 $  - Segno
 &  - Coda
Tempo markers -  = BPM(8/16=s8/s16), where s8 = swing 8ths, s16 = swing 16ths
Tap to rate this tab
 
# A B C D E F G H I J K L M N O P Q R S T U V W X Y Z