Song name
# A B C D E F G H I J K L M N O P Q R S T U V W X Y Z

Breaking The Silence - Smack tab

Verse
e7-7-7-7-9-9-9-9-9-9-9-9-9-8-7-^6---------------|
b7-7-7-7-9-9-9-9-9-9-9-9------------------------|
g8-8-8-8---------9-9-9-9---------       Repeat--| 3x
d-----------------------------------------------|
a-----------------------------------------------|
E-----------------------------------------------|
Chorus
e77777777-5-7/8-9-77777777-5-4-2/7--------------|
b77777777-7-------77777777----------------------|
g88888888-7-------77777777--------      Repeat--| 2x
d-----------------------------------------------|
a-----------------------------------------------|
E-----------------------------------------------|
Outro
e3-4-6-7-8^9-5-5~~~~~------------|
b------7----5--5~~~~~------------|
g------7----5--6~~~~~      Play--| 1x
d--------------------------------|
a--------------------------------|
E--------------------------------|

Order

Verse
chorus
verse
improvise
verse
chorus
Outro
Tap to rate this tab
# A B C D E F G H I J K L M N O P Q R S T U V W X Y Z