Song name
# A B C D E F G H I J K L M N O P Q R S T U V W X Y Z

Breathe Carolina - Idgaf tab

Fairly simple. Same rhythm pretty much the whole song.

(0:03-0:06) Intro
e------------------------|
b------------------------|
g------------------------|
d-00-3333--88------------|
a-00-3333--88------------|
D-00-3333--88------------|

(0:08-0:16) Verse

e------------------------|
b------------------------|
g------------------------|
d-00-3333--88-7777-------| x2
a-00-3333--88-7777-------|
D-00-3333--88-7777-------|

(0:24-0:30) Verse

e-------------------------------|
b-------------------------------|
g-------------------------------|
d-00-3333--88-7777-55-5555-77---|
a-00-3333--88-7777-55-5555-77---|
D-00-3333--88-7777-55-5555-77---|

(0:32-0:43) Verse

e------------------------|
b------------------------|
g------------------------|
d-00-3333--88-7777-------| x3
a-00-3333--88-7777-------|
D-00-3333--88-7777-------|

(0:48-1:02) Chorus

e------------------------|
b------------------------|
g------------------------|
d-00-3333--88-7777-------| x2
a-00-3333--88-7777-------|
D-00-3333--88-7777-------|

e-------------------------------|
b-------------------------------|
g-------------------------------|
d-00-3333--88-7777-55-5555-77---|
a-00-3333--88-7777-55-5555-77---|
D-00-3333--88-7777-55-5555-77---|

After that it pretty much repeats.



Tap to rate this tab
# A B C D E F G H I J K L M N O P Q R S T U V W X Y Z