Song name
# A B C D E F G H I J K L M N O P Q R S T U V W X Y Z

Breathe Carolina - Hello Fascination tab

Breathe Carolina - Hello Fascination
Tabber: LightningLogan

This is Hello Fascination by Breathe Carolina. I know most of its all synth but ive 
the guitar and the chords kinda. could be wrong cause i just did it by ear. The added 
I suggest using are Chorus Flange, Phaser, and Reverb.

Main Riff:
D#|----------------------------------------------------------|
A#|----------------------------------------------------------|
F#|----------------------------------------------------------|
C#|----------------------------------------------------------|
G#|----------------------------------------------------------|
C#|-0-0000-0-0000-0-0000-0-00005558888-8-8888-8/3333-3\777-7-|

Verse:
D#|----------------------|
A#|----------------------|
F#|----------------------|
C#|-0~-----------8~--3/7-|
G#|-0~-----------8~--3/7-|
C#|-0~-----------8~--3/7-|

Chorus:
D#|-------------------|
A#|-------------------|
F#|-------------------|
C#|-10---5---12---7---|
G#|-10x8-5x8-12x8-7x8-|
C#|-10---5---12---7---|

Breakdown:
D#|---------------------------------------------------|
A#|---------------------5*----------------------------|
F#|---------------------------------------------------|
C#|------------------------------------0---0---0-00-0-|
G#|0---0--0-00-0----0-0----0-00-0--12\-0---0---0-00-0-|
C#|0---0--0-00-0----0-0----0-00-0--12\-0---0---0-00-0-|
   .   .  . .. .    . .    . .. .

D#|-------------|
A#|-------------|
F#|-------------|
C#|-------------|
G#|-------------|
C#|-8x8-3x4-7x4-|
    ...........


/ or \ = slide
. = palm mute
* = pinch harmonic
x4 = play the chord 4 times...If you actually wondered...then youre an idiot
x8 = play the chord 8 times...If you actually wondered...then youre an idiot
Tap to rate this tab
# A B C D E F G H I J K L M N O P Q R S T U V W X Y Z