Breathe Carolina - Tripped And Fell In Portland tab

                                 Tripped And Fell in Portland
                                             Acoustic outro
                                            Breathe Carolina
                                        Hello fascination (2009)
                                           Fearless records
                                            Drop D tunning
                                         This is 100% correct 
                                   Hope you like it!! please rate:D
                                           

                                          3:03 into the song
                                        

E|----3~~------3/5\3-----------------|                                           
B|----3~~------3/5\3-----3~----------|
G|----0~-------0~~~~-----2~--------7h|
D|-----------------------0~----------|
A|--------------------3~-------------|
D|-2~-------2~---------------0~------| 
                                Please
E|----3~~------3/5\3-----------------|                                           
B|----3~~------3/5\3-----3~----------|
G|----0~-------0~~~~-----2~--------7h|
D|-----------------------0~----------|
A|--------------------3~-------------|
D|-2~-------2~---------------0~------|

 forgive me.                    I dont 
E|----3~~------3/5\3-----------------|                                           
B|----3~~------3/5\3-----3~----------|
G|----0~-------0~~~~-----2~--------7h|
D|-----------------------0~----------|
A|--------------------3~-------------|
D|-2~-------2~---------------0~------|

 wanna hurt anymore.               My 
E|----3~~------3/5\3-----------------|                                           
B|----3~~------3/5\3-----3~----------|
G|----0~-------0~~~~-----2~--------7h|
D|-----------------------0~----------|
A|--------------------3~-------------|
D|-2~-------2~---------------0~------|

  heart is breaking.               Can 
E|----3~~------3/5\3-----------------|                                           
B|----3~~------3/5\3-----3~----------|
G|----0~-------0~~~~-----2~--------7h|
D|-----------------------0~----------|
A|--------------------3~-------------|
D|-2~-------2~---------------0~------|

 I take you home?        Open yourself 
E|----3~~------3/5\3-----------------|                                           
B|----3~~------3/5\3-----3~----------|
G|----0~-------0~~~~-----2~--------7h|
D|-----------------------0~----------|
A|--------------------3~-------------|
D|-2~-------2~---------------0~------|

 up to me and surrender. Can I take you home? (Please forgive me) 
E|----3~~------3/5\3-----------------|                                           
B|----3~~------3/5\3-----3~----------|
G|----0~-------0~~~~-----2~--------7h|
D|-----------------------0~----------|
A|--------------------3~-------------|
D|-2~-------2~---------------0~------|
 Well lock out the world and well stay here forever.
Tap to rate this tab
 
# A B C D E F G H I J K L M N O P Q R S T U V W X Y Z