Breathe Carolina - Tripped And Fell In Portland tab

First tab, go easy. Great song.
The parenthesis (brackets) are to show that the 11's are 11's not 1's.
Strummings pretty easy so if it doesn't look right then listen to the song for timing.

Legend:
. = palm mute
\ = slide down
/ = slide up

Intro:

e|--------------------------|-----------------------|
B|--------------------------|-----------------------|
G|--------------------------|-----------------------|
D|8-8-8-(11)-000-0-0-0-0-0-0|8-8-8-6-000-0-0-0-0-0-0|
A|8-8-8-(11)-000-0-0-0-0-0-0|8-8-8-6-000-0-0-0-0-0-0|
D|8-8-8-(11)-000-0-0-0-0-0-0|8-8-8-6-000-0-0-0-0-0-0|
             ... . . . . . .         ... . . . . . .

e|--------------------------|-----------------------|
B|--------------------------|-----------------------|
G|--------------------------|-----------------------|
D|8-8-8-(11)-000-0-0-0-0-0-0|8-8-8-4-000-0-0-0-0-0-0|
A|8-8-8-(11)-000-0-0-0-0-0-0|8-8-8-4-000-0-0-0-0-0-0|
D|8-8-8-(11)-000-0-0-0-0-0-0|8-8-8-4-000-0-0-0-0-0-0|
             ... . . . . . .         ... . . . . . .

Verse (2x):

e|--------------------------|-----------------------|
B|--------------------------|-----------------------|
G|--------------------------|-----------------------|
D|8-8-8-(11)-000------------|8-8-8-6-000------------|
A|8-8-8-(11)-000------------|8-8-8-6-000------------|
D|8-8-8-(11)-000------------|8-8-8-6-000------------|
             ...                     ...

e|--------------------------|-----------------------|
B|--------------------------|-----------------------|
G|--------------------------|-----------------------|
D|8-8-8-(11)-000------------|8-8-8-4-000------------|
A|8-8-8-(11)-000------------|8-8-8-4-000------------|
D|8-8-8-(11)-000------------|8-8-8-4-000------------|
             ...                     ...

Pre-chorus:

e|--------------------------|-----------------------|
B|--------------------------|-----------------------|
G|--------------------------|-----------------------|
D|8-8-8---------------------|6\---------------------|
A|8-8-8---------------------|6\---------------------|
D|8-8-8---------------------|6\---------------------|

Chorus:

e|----------------|---------------------------|
B|----------------|---------------------------|
G|----------------|---------------------------|
D|66-888-444-66666|66-888-(11)(11)(11)-66666--|
A|66-888-444-66666|66-888-(11)(11)(11)-66666--|
D|66-888-444-66666|66-888-(11)(11)(11)-66666--|

e|----------------|-------------------------|
B|----------------|-------------------------|
G|----------------|-------------------------|
D|66-444-666-666|8-888-8-8-8-8-6-6----------|
A|66-444-666-666|8-888-8-8-8-8-6-6----------|
D|66-444-666-666|8-888-8-8-8-8-6-6----------|

Verse (2x):

e|--------------------------|-----------------------|
B|--------------------------|-----------------------|
G|--------------------------|-----------------------|
D|8-8-8-(11)-000------------|8-8-8-6-000------------|
A|8-8-8-(11)-000------------|8-8-8-6-000------------|
D|8-8-8-(11)-000------------|8-8-8-6-000------------|
             ...                     ...

e|--------------------------|-----------------------|
B|--------------------------|-----------------------|
G|--------------------------|-----------------------|
D|8-8-8-(11)-000------------|8-8-8-4-000------------|
A|8-8-8-(11)-000------------|8-8-8-4-000------------|
D|8-8-8-(11)-000------------|8-8-8-4-000------------|
             ...                     ...

Pre-chorus:

e|--------------------------|-----------------------|
B|--------------------------|-----------------------|
G|--------------------------|-----------------------|
D|8-8-8---------------------|6\---------------------|
A|8-8-8---------------------|6\---------------------|
D|8-8-8---------------------|6\---------------------|

Chorus:

e|----------------|---------------------------|
B|----------------|---------------------------|
G|----------------|---------------------------|
D|66-888-444-66666|66-888-(11)(11)(11)-66666--|
A|66-888-444-66666|66-888-(11)(11)(11)-66666--|
D|66-888-444-66666|66-888-(11)(11)(11)-66666--|

e|----------------|-------------------------|
B|----------------|-------------------------|
G|----------------|-------------------------|
D|66-444-666-666|8-888-8-8-8-8-6-6----------|
A|66-444-666-666|8-888-8-8-8-8-6-6----------|
D|66-444-666-666|8-888-8-8-8-8-6-6----------|

Breakdown:

e|--------------------------|-----------------------|
B|--------------------------|-----------------------|
G|--------------------------|-----------------------|
D|8-8-8-(11)----------------|8-8-8-6----------------|
A|8-8-8-(11)----------------|8-8-8-6----------------|
D|8-8-8-(11)-000-0-0-0-0-0-0|8-8-8-6-000-0-0-0-0-0-0|

e|--------------------------|-----------------------|
B|--------------------------|-----------------------|
G|--------------------------|-----------------------|
D|8-8-8-(11)----------------|8-8-8-4----------------|
A|8-8-8-(11)----------------|8-8-8-4----------------|
D|8-8-8-(11)-000-0-0-0-0-0-0|8-8-8-4-000-0-0-0-0-0-0|

e|--------------------------|-----------------------|
B|--------------------------|-----------------------|
G|--------------------------|-----------------------|
D|8-8-8-(11)----------------|8-8-8-6----------------|
A|8-8-8-(11)----------------|8-8-8-6----------------|
D|8-8-8-(11)0000000000000000|8-8-8-60000000000000000|
            ................        ................

e|--------------------------|-----------------------|
B|--------------------------|-----------------------|
G|--------------------------|-----------------------|
D|8-8-8-(11)----------------|8-8-8-4----------------|
A|8-8-8-(11)----------------|8-8-8-4----------------|
D|8-8-8-(11)0000000000000000|8-8-8-40000000000000000|
            ................        ................

e|--------------------------|-----------------------|
B|--------------------------|-----------------------|
G|--------------------------|-----------------------|
D|8-8-8---------------------|-----------------------|
A|8-8-8---------------------|-----------------------|
D|8-8-8---------------------|-----------------------|

e|--------------------------|-----------------------|
B|--------------------------|-----------------------|
G|--------------------------|-----------------------|
D|--------------------------|6-6-6-6-6-6-6-6-6\-----|
A|--------------------------|6-6-6-6-6-6-6-6-6\-----|
D|--------------------------|6-6-6-6-6-6-6-6-6\-----|

Chorus:

e|----------------|---------------------------|
B|----------------|---------------------------|
G|----------------|---------------------------|
D|66-888-444-66666|66-888-(11)(11)(11)-66666--|
A|66-888-444-66666|66-888-(11)(11)(11)-66666--|
D|66-888-444-66666|66-888-(11)(11)(11)-66666--|

e|----------------|-------------------------|
B|----------------|-------------------------|
G|----------------|-------------------------|
D|66-444-666-666|8-888-8-8-8-8-6-6----------|
A|66-444-666-666|8-888-8-8-8-8-6-6----------|
D|66-444-666-666|8-888-8-8-8-8-6-6----------|

Strumming is different in the marked part below,
it's hard to hear over synthesizer.
 |      here      |

e|----------------|---------------------------|
B|----------------|---------------------------|
G|----------------|---------------------------|
D|66-888-444-66666|66-888-(11)(11)(11)-66666--|
A|66-888-444-66666|66-888-(11)(11)(11)-66666--|
D|66-888-444-66666|66-888-(11)(11)(11)-66666--|

e|----------------|-------------------------|
B|----------------|-------------------------|
G|----------------|-------------------------|
D|66-444-666-666|8-888-8-8-8-8-6-6----------|
A|66-444-666-666|8-888-8-8-8-8-6-6----------|
D|66-444-666-666|8-888-8-8-8-8-6-6----------|

Verse:

e|--------------------------|-----------------------|
B|--------------------------|-----------------------|
G|--------------------------|-----------------------|
D|8-8-8-(11)----------------|8-8-8-6----------------|
A|8-8-8-(11)----------------|8-8-8-6----------------|
D|8-8-8-(11)0000000000000000|8-8-8-60000000000000000|
            ................        ................

e|--------------------------|-----------------------|
B|--------------------------|-----------------------|
G|--------------------------|-----------------------|
D|8-8-8-(11)----------------|8-8-8-4-000-0-0-0-0-0-0|
A|8-8-8-(11)----------------|8-8-8-4-000-0-0-0-0-0-0|
D|8-8-8-(11)0000000000000000|8-8-8-4-000-0-0-0-0-0-0|
            ................

Outro: See stevefrost83's outro tab.
Tap to rate this tab
 
# A B C D E F G H I J K L M N O P Q R S T U V W X Y Z