Song name
# A B C D E F G H I J K L M N O P Q R S T U V W X Y Z

Breathe Carolina - Last Night Vegas tab

Capo on 2nd (This goes along with the chords for this song
( http://tabs.ultimate-guitar.com/b/breathe_carolina/
last_night_vegas_crd_1074945id_22072011date.htm ). This plays in a bunch of random
places in the song, you just have to listen for it. I'm not 100% sure about this
yet so I have two versions that you can try...

e|---------------------------------------------------------------------------|
B|-1-1-1-1-2-3---------------------------------------------------------------|
G|--------------2-2-2-2-3-4--------------------------------------------------|
D|---------------------------2-2-2-2-3-4-------------------------------------|
A|----------------------------------------2-2-2-2-3-4------------------------|
E|---------------------------------------------------------------------------|
~Or~
e|--------------------------------------------------------------------------|
B|-1-1-1-1-2-3--------------------------------------------------------------|
G|-------------1-1-1-1-2-3--------------------------------------------------|
D|-------------------------2-2-2-2-3-4--------------------------------------|
A|-------------------------------------2-2-2-2-3-4--------------------------|
E|--------------------------------------------------------------------------|

It might not sound completely right when you play it along but when you play it to
the song or play it completely through, it sounds right,
Tap to rate this tab
 
# A B C D E F G H I J K L M N O P Q R S T U V W X Y Z