Song name
# A B C D E F G H I J K L M N O P Q R S T U V W X Y Z

Breathe Carolina - Sellouts tab

Breathe Carolina - Sellouts (Feat. Danny Worsnop) tabbed by Nick 
(Youtube: nicestr790wnz) Check out my cover of this song!
It's a pretty easy song, I hope you enjoy learning and playing this song!

Tuning: Drop B (B F# B E G# C#)
   
INTRO (0:00 - 0:19)

C#|----------------------------------------------|
G#|----------------------------------------------|
E |----------------------------------------------|
B |----------------------------------------------| [6x]
F#|----------------------------------------------|
B |----------------0----0-0-0--0--0-0-0--0000----|
                        . .       . .

PART 2  (0:19 - 0:31)                                  |        1st time    |

C#|----------------------------------------------------|--------------------|
G#|----------------------------------------------------|--------------------|
E |----------------------------------------------------|--------------------| [2x]
B |----------------------------------------------------|--------------------| 
F#|----------------------------------------------------|--------------------|
B |----0~--0-0-0~0~---0-0-0~---7-10-5-8---0~--0-0-0~0~-|--0-0-0~---5-8-4-7--|
           . .        . .                     . .         . .

  |        2nd time      |
C#|----------------------|
G#|----------------------|
E |----------------------|
B |----------------------| 
F#|----------------------|
B |----0-0-0----5-8-4-7--|
       . .

PART 3    (0:31  -  0:43)

C#|----------------------------------| |------------------------------------|
G#|----------------------------------| |------------------------------------|
E |----------------------------------| |------------------------------------|
B |----------------------------------| |------------------------------------|[2x]
F#|----------------------------------| |------------------------------------|
B |------0---0-0-0--0---0-0-0--00000-| |--0-0-0--0---0-0-0---00000~---------|
             . .        . .               . .        . .
C#|----------------------|
G#|----------------------|
E |----------------------|
B |----------------------| 
F#|----------------------|
B |----0-0-0~-0~\--------|
       . .
  
PART 4  (0:43  -  1:07)                                                                                 
C#|------------------------------------------------------------------------||
G#|------------------------------------------------------------------------||
E |------------------------------------------------------------------------|| [4x]
B |------------------------------------------------------------------------|| 
F#|----8--8---7--777-7-7-7--0--0--0--00000---{0}-<--4th time skip----------||
B |----8--8---7--777-7-7-7--0--0--0--00000---{0}---------------------------||
       .  .   .  ... . . .  .  .  .  .....    .

*Repeat Intro: 4x       (1:07  -  1:21)
*Repeat Part 2          (1:21  -  1:33)  
*Repeat Part 3          (1:33  -  1:45) 
*Repeat Part 4: 3x      (1:45  -  2:03)

Then  (2:03  -  2:09)

C#|--------------------------------------|
G#|--------------------------------------|
E |--------------------------------------|
B |--------------------------------------| 
F#|----8--8---7--777-7-7-7------000-000--|
B |----8--8---7--777-7-7-7------000-000--|
       .  .   .  ... . . .      ... ...

*Repeat Part 2   (2:09  -  2:21)
 
(2:21  - 2:31) 
C#|--------------------------------|     |---------------------|
G#|--------------------------------|     |---------------------|
E |--------------------------------|     |---------------------| 
B |--------------------------------|[3x] |---------------------| 
F#|--------------------------------|     |---------------------|
B |----0~--0-0-0~0~--0-0-0~--0000--|     |----0~--0-0-0--------|
           . .       . .                          . .

*Break  (2:31  -  3:09)

(3:09 - 4:21)
C#|---------------------------------------------------------------------|
G#|---------------------------------------------------------------------|
E |---------------------------------------------------------------------|
B |----0------0------10------10------8------8------5------5-------------| [6x]
F#|----0-8x---0-7x---10-8x---10-7x---8-8x---8-7x---5-8x---5-7x----------|
B |----0------0------10------10------8------8------5------5-------------|

END

.  = Palm Mute
~ = Let it Ring
Tap to rate this tab
 
# A B C D E F G H I J K L M N O P Q R S T U V W X Y Z