Song name
# A B C D E F G H I J K L M N O P Q R S T U V W X Y Z

Breathe - How Can I Fall tab

how can i fall by breathe

hello guitar lovers out there, here is just a glimpse of breathe's hit
how can i fall.. i dedicate this song to those people who loves this song,this is really a nice song.

STANDARD TUNING (EADGBe)
intro:

    A                     A/F#                             E7
----0----------------------0----------------------------------------0---|
----------------0--2-0-----0-------------0---2---0--------------0-------|
---------2--2-----------2--------2---2---------------2-------1----------|
------2-----------------------2---------------------------2-------------|
----0-------------------------------------------------------------------|
---------------------------2--------------------------------------------|
                                       D               A/C#
---------------------------------------0---------0----0-----------0-----|
------------------------------------------------------------------------|
-------2---------2----------2-----------------6---------------2---------|
2--4------2--4-------4----------4---------7----------------2------------|
---------------------------------------5--------------4-----------------|
------------------------------------------------------------------------|
E
-0------------0--------------------------------------------------------|
-0------------0--------------------------------------------------------|
--------1--------------------------------------------------------------|
-----2-----------------------------------------------------------------|
-----------------------------------------------------------------------|
-0---------------------------------------------------------------------|


intro lng to, but this is reliable..

jc:-)
Tap to rate this tab
# A B C D E F G H I J K L M N O P Q R S T U V W X Y Z