Song name
# A B C D E F G H I J K L M N O P Q R S T U V W X Y Z

Bree Sharp - Everything Feels Wrong tab

Bree Sharp is an awesome talent! Shes a folky rock chick. This song is off her second
cd title "More B.S". To anyone who hasnt heard her music check her out you wont be disapointed.
There was no Bree Sharp on this website, so i decided to post it. Bree Sharp tabs
are really hard to come by especially corret ones! Enjoy!! -Meg

Intro:
---------------------------------------------------------------|
---------------------------------------------------------------|
---------------------------------------------------------------|
--------------------0-2-2---0-2-------5--------4---------------|
-4-4-3-2-2----2-0-2--------------0-3--3---3--0-2---------------|

---------------------------------------------------------------|
-------------------------2-2-2-2------2-2-2-2------------------|
-------------------------0-0-0-0------0-0-0-0------------------|
-2-2-2-2-----2-2-2-2-----2-2-2-2------2-2-2-2------------------|
-0-0-0-0-----0-0-0-0-----0-0-0-0------0-0-0-0------------------|

Verse:
---------------------------------------3-0---------------------|
--------------------------------------------1------------------|
---------------------------------------------0-----------------|
-----------------0-2-2------2----------------------------------|
-4-4-3-2-2--202-----------3------------------------------------|

------------2---------------------------------------------------|
----------0----0------------------------------------------------|
---------2--------2---------------------------------------------|
------0--------------0-----2-2-4-2-----------2-2-4-2----2-2-4-2-|
---2-----------------------0-0-0-0-----------0-0-0-0----0-0-0-0-|

Chorus:
---------------------------------------------------------------|
-9-10-10-9----------------4-5-4-5-4----------------------------|
-9-9--9--9----------------4-4-4-4-4----------------------------|
-9-11-11-9----------------4-6-4-6-4----------------------------|

F#M         A
-2----------5--------------------------------------------------|
-2----------5--------------------------------------------------|
-2----------6--------------------------------------------------|
-4----------7--------------------------------------------------|
-4----------7--------------------------------------------------|
-2----------5--------------------------------------------------|

Bridge:                                    F#M   A
----0------0-0-0-0-0-------------------------------------------|X4
----0-------0-0-0-0-0------------------------------------------|
----2----------------------------------------------------------|
----2----------------------------------------------------------|
----0----------------------------------------------------------|
Tap to rate this tab
# A B C D E F G H I J K L M N O P Q R S T U V W X Y Z