Song name
# A B C D E F G H I J K L M N O P Q R S T U V W X Y Z

Breech Birth - Noise No 1 tab

#----------------------------------PLEASE NOTE---------------------------------#
#This file is the author's own work and represents their interpretation of the #
#song. You may only use this file for private study, scholarship, or research. #
#------------------------------------------------------------------------------##
Date: Sun, 29 Oct 1995 09:55:20 -0500
From: splunket@vt.edu (Habib Fukhed)

here's some Breech Birth Tab for Noise_#_1.
Copywrited by Lesbian Hushpuppy Music/Drone Music Inc. 1995
Written by Callahan, Nyguen, Plunkett, Evans, Flexon.

BREECH BIRTH-NOISE #1


Riff 1
               Harm...............................................
|--------------------------------------------------------------------------------|
|--------------------------------------------------------------------------------|
|--------------------------------------------------------------------------------|
|--2-2-2-2-------------------------------------------------------------2-2-------|
|--2-2-2-2-------------------------------------------------------------2-2-------|
|--3-3-3-0-----(2 3/4)-(2 3/4)-(2 3/4)-(2 3/4)-(2 3/4)-(2 3/4)-(2 3/4)-3-0-------|

Riff2
|--------------------------------------------------------------------------------|
|--------------------------------------------------------------------------------|
|--7-/-10-10-10--10-10--10--10---------------------------------------------------|
|--6-/-9--9---9---9--9---9---9---------------------------------------------------|
|--5-/-8--8---8---8--8---8---8---------------------------------------------------|
|--------------------------------------------------------------------------------|

Riff 3
     pm..
|--------------------------------------------------------------------------------|
|--------------------------------------------------------------------------------|
|--------------------------------------------------------------------------------|
|--5-----4-2-4-5-4-4-4-----------------------------------------------------------|
|--5-----4-2-4-5-4-4-4-----------------------------------------------------------|
|--3-0-0-2-0-2-3-2-2-2-----------------------------------------------------------|


Pattern:
Riff1(x8), Riff2(x4), Riff1(x4), Riff2(x4), Riff3(x4), Riff1(x4),
Riff2(x4), Riff3(x4), Riff1(x4, with andw/out drums &bass), Riff4 (smash
your guitar)

For bass:
|------------9-9-9-9-9------------|
|------------8-8-8-8-8------------|
|------------7-7-7-7-7---7--------|
|--3-3-3-0-------------0-----3-0--|

other wise just follow guitar and add short fills at end of Riff2.
just remember the worse you sound the better that you're getting at playing
this song.


Date: Sat, 28 Oct 1995 19:48:02 -0500
From: splunket@vt.edu (Habib)

BREECH BIRTH-NOISE #1


Riff 1
                Harm..................................................
|--------------------------------------------------------------------------------|
|--------------------------------------------------------------------------------|
|--------------------------------------------------------------------------------|
|--2-2-2-2-------------------------------------------------------------2-2-------|
|--2-2-2-2-------------------------------------------------------------2-2-------|
|--3-3-3-0-----(2 3/4)-(2 3/4)-(2 3/4)-(2 3/4)-(2 3/4)-(2 3/4)-(2 3/4)-3-0-------|

Riff2
Tritones of D and F
|--------------------------------------------------------------------------------|
|--------------------------------------------------------------------------------|
----|--7-/-10-10--10-10-10--10--10-----------------------------------------------|
---------------------------------------------------------------------------------|
|--6-/-9--9---9---9--9---9---9---------------------------------------------------|
|--5-/-8--8---8---8--8---8---8---------------------------------------------------|
|--------------------------------------------------------------------------------|
Riff 3
     pm..
|--------------------------------------------------------------------------------|
|--------------------------------------------------------------------------------|
|--------------------------------------------------------------------------------|
|--5------4-2-4-5-4-4-4----------------------------------------------------------|
|--5------4-2-4-5-4-4-4----------------------------------------------------------|
|--3-0-0--2-0-2-3-2-2-2----------------------------------------------------------|

Pattern:
Riff1(x8), Riff2(x4), Riff1(x4), Riff2(x4), Riff3(x4), Riff1(x4),
Riff2(x4), Riff3(x4), Riff1(x4, with andw/out drums &bass), Riff4 (smash
your guitar)

For bass:
|------------9-9-9-9-9------------|
|------------8-8-8-8-8------------|
|------------7-7-7-7-7---7--------|
|--3-3-3-0-------------0-----3-0--|

other wise just follow guitar and add short fills at end of Riff2.
just remember the worse you sound the better that you're getting at playing
this song.
Tap to rate this tab
# A B C D E F G H I J K L M N O P Q R S T U V W X Y Z