Guitaretab - guitar tabs
Song name
# A B C D E F G H I J K L M N O P Q R S T U V W X Y Z

Breed 77 - A Safe Place tab

-------------------------------------------------------------------------------
			     A SAFE PLACE - The Beautiful Mistake
-------------------------------------------------------------------------------
Tabbed by:Luis Gustavo Hernández Collado
Email:ltavo_87@hotmail.com

Tuning:EADGBe

Intro
Guitar 1
e|---------------------------|
B|---------------------------|
G|---------------------------|X2
D|---------------------------|
A|-5-7-8---7-8---7-8---5-7-8-|
E|-------6-----8-----5-------|

Verse 1
(The beasts of pride holding you down...)
Guitar 1
e|---------------------------|
B|---------------------------|
G|---------------------------|X4
D|---------------------------|
A|-5-7-8---7-8---7-8---5-7-8-|
E|-------6-----8-----5-------|

Guitar 2
e|------|
B|------|
G|------|
D|-8888-|
A|-8888-|
E|-6666-|

e|-------------------------|
B|-------------------------|
G|-------------------------|X4
D|-8888-10101010-7777-8888-|
A|-8888-10101010-7777-8888-|
E|-6666-8-8-8-8--5555-6666-|

Chorus 1/Mini-Break
Guitar 1 
e|-----------------|
B|-----------------|
G|-----------------|X3
D|---10-8-7-8-(10)-|
A|-8---------------|
E|-----------------|

e|-----------------------------|
B|--------------------------11-|
G|----12-10-9-10-12-10-9-10----|
D|-10--------------------------|
A|-----------------------------|
E|-----------------------------|

Guitar 2
e|----------------|
B|----------------|
G|----------------|
D|-10r---8r---5-3-|
A|-10r---8r---5-3-|
E|-8r----6r---3-1-|

e|--------------------|
B|--------------------|
G|--------------------|
D|-10r---8r---555-333-|
A|-10r---8r---555-333-|
E|-8r----6r---333-111-|

Verse 2
(The strings that held me, choking off the air...)
Guitar 1
e|---------------------------|
B|---------------------------|
G|---------------------------|X4
D|---------------------------|
A|-5-7-8---7-8---7-8---5-7-8-|
E|-------6-----8-----5-------|

Guitar 2
e|------|
B|------|
G|------|
D|-8888-|
A|-8888-|
E|-6666-|

e|-------------------------|
B|-------------------------|
G|-------------------------|X4
D|-8888-10101010-7777-8888-|
A|-8888-10101010-7777-8888-|
E|-6666-8-8-8-8--5555-6666-|

Chorus 2 X2
(I want you, to feel what I do...)
Guitar 1 
e|-----------------|
B|-----------------|
G|-----------------|X3
D|---10-8-7-8-(10)-|
A|-8---------------|
E|-----------------|

e|-----------------------------|
B|--------------------------11-|
G|----12-10-9-10-12-10-9-10----|
D|-10--------------------------|
A|-----------------------------|
E|-----------------------------|

Guitar 2
e|----------------|
B|----------------|
G|----------------|
D|-10r---8r---5-3-|
A|-10r---8r---5-3-|
E|-8r----6r---3-1-|

e|--------------------|
B|--------------------|
G|--------------------|
D|-10r---8r---555-333-|
A|-10r---8r---555-333-|
E|-8r----6r---333-111-|
[ Tab from: http://www.guitaretab.com/b/breed-77/49607.html ]
Interlude 1
Part 1
Guitar 1
e|---------------------------------------------|
B|---------------------------------------------|
G|-12-12-10-10-12-12-10-10---------------------|X2
D|-x--x--x--x--x--x--x--x--10-10-8-8-10-10-8-8-|
A|-10-10-8--8--10-10-8--8--10-10-8-8-10-10-8-8-|
E|-------------------------8--8--6-6-8--8--6-6-|

Guitar 2
e|---------------------------------------------|
B|---------------------------------------------|
G|-x--x--x--x--x--x--x--x----------------------|X2
D|-x--x--x--x--x--x--x--x--10-10-8-8-10-10-8-8-|
A|-x--x--x--x--x--x--x--x--10-10-8-8-10-10-8-8-|
E|-------------------------8--8--6-6-8--8--6-6-|

Part 2
Guitar 1
e|----------------------------------|
B|----------------------------------|
G|-----------10-----------10-----10-|X4
D|---10-8-10------10-8-10------8----|
A|-8------------8------------8------|
E|----------------------------------|

e|----------------------------------------|
B|----11-10-11-13----11-10-11-13----11-13-|
G|-10-------------10-------------10-------|
D|----------------------------------------|
A|----------------------------------------|
E|----------------------------------------|

e|----------------------------------|
B|----------------------------------|
G|-----------10-----------10-----10-|
D|---10-8-10------10-8-10------8----|
A|-8------------8------------8------|
E|----------------------------------|

e|----------------------------------------|
B|----11-10-11-13----11-10-11-13----11-13-|
G|-10-------------10-------------10-------|
D|----------------------------------------|
A|----------------------------------------|
E|----------------------------------------|

Guitar 2
e|---------------------|
B|---------------------|
G|-12-10-9-10-12-10-9r-|X2
D|---------------------|
A|---------------------|
E|---------------------|

e|-17-15-13-15-17-15-13r-|
B|-----------------------|
G|-----------------------|X2
D|-----------------------|
A|-----------------------|
E|-----------------------|

Chorus 3 X2
(I want you, to feel what I do...)
Guitar 1 
e|-----------------|
B|-----------------|
G|-----------------|X3
D|---10-8-7-8-(10)-|
A|-8---------------|
E|-----------------|

e|-----------------------------|
B|--------------------------11-|
G|----12-10-9-10-12-10-9-10----|
D|-10--------------------------|
A|-----------------------------|
E|-----------------------------|

Guitar 2
e|----------------|
B|----------------|
G|----------------|
D|-10r---8r---5-3-|
A|-10r---8r---5-3-|
E|-8r----6r---3-1-|

e|--------------------|
B|--------------------|
G|--------------------|
D|-10r---8r---555-333-|
A|-10r---8r---555-333-|
E|-8r----6r---333-111-|

Interlude 2/Outro
(I want you to feel!)
Guitar 1 
e|-------------------|
B|-------------------|
G|------10-8/7/8/7---|X4
D|---10------------8-|
A|-8-----------------|
E|-------------------|

e|-----------------------|
B|-----------------------|
G|-------12-10/9/10/9----|X8
D|-10-12--------------10-|
A|-----------------------|
E|-----------------------|

e|-------15-13/12/13/12----|
B|-13-15----------------13-|
G|-------------------------|X4
D|-------------------------|
A|-------------------------|
E|-------------------------|

Guitar 2 X8
e|----------------|
B|----------------|
G|----------------|
D|-10r---8r---5-3-|
A|-10r---8r---5-3-|
E|-8r----6r---3-1-|

e|--------------------|
B|--------------------|
G|--------------------|
D|-10r---8r---555-333-|
A|-10r---8r---555-333-|
E|-8r----6r---333-111-|
Related for A Safe Place tab
A Safe Place chords by Breed 77