Song name
# A B C D E F G H I J K L M N O P Q R S T U V W X Y Z

Breeders - Divine Hammer tab

From: tmvtzet@cs.vu.nl (Zet van t TM)


"Divine Hammer" - The Breeders

Tab transcription by Mark van 't Zet (tmvtzet@cs.vu.nl)
Tune down 1/2 step


INTRO

  guitar 1
  ---------------------------------------
  ---------------------------------------
  ---------------------------------------
  ---------------------------------------
  --6-----4-6-----4-6-----4-6-------4-6--
  --------------------------------7------

  bass
  ---------------------------------------
  ----------2---------------4------------
  --2---------------4--------------------
  ---------------------------------------
 
  guitar 2 in sync with bass        
    -       -       C#m     F#

  guitar 2 plays from now on
    B       E       C#m     F#

DRUMS ENTER

RIFF - Low 

  ---------------
  ---------------
  --8-8-8-9---8--
  --9-9-9-9---9--  
  ---------------
  ---------------

VERSE

  'I'm just looking for..'

RIFF - High

  --11-11-11-12----11--
  --12-12-12-12----12--
  ---------------------
  ---------------------
  ---------------------
  ---------------------

CHORUS

  'One divine hammer.. one divine hammer..'

    E (x16)  B (x16)
  
  --0--------2---------
  --0--------4---------
  --1--------4---------
  --2--------4---------
  --2--------2---------
  --0------------------

'SOLO'

  ----------------------------------------------------------------
  ----------------------------------------------------------------
  ----------------------------------------------------------------
  -----------------1-----1----------------------------------------
  -----------2--4----------4----4\2----2-1-2--1-1-----------------
  --0--2--4-------------------------------------------------------


  ----------------------------------------------------------------
  ----------------------------------------------------------------
  -------------------------------------------------------4--4-6-4-
  -----------------1-----1---------------------1-4---4/6----------
  -----------2--4----------4----4\2----2---2-4-----6--------------
  --0--2--4------------------------------4------------------------
Tap to rate this tab
 
# A B C D E F G H I J K L M N O P Q R S T U V W X Y Z