Song name
# A B C D E F G H I J K L M N O P Q R S T U V W X Y Z

Breeders - Safari tab

(Not the actual rhythm but you get the idea)

e------------------------------------------------|
B------------------------------------------------|
G------------------------------------------------|
D------------------------------------------------|
A------------------------------------------------|
E-3-3-3-3-3-3/6-6-6-6-6\3\1-1-1-1-1/2-2/3-3-3-3--|

The best way to get the same sound they use on the record is to use an acoustic guitar 
and mute all the other strings while "strumming" the low E, if that makes any sense.


The chord progression is basically the same thing from what I can hear:
e-3-3-3-3-3-3-6-6-6-6-6-3-1-1-1-1-1-2-2-3-3-3-3----------|
B-3-3-3-3-3-3-6-6-6-6-6-3-1-1-1-1-1-2-2-3-3-3-3----------|
G-4-4-4-4-4-4-7-7-7-7-7-4-2-2-2-2-2-3-3-4-4-4-4----------|   etc.
D-5-5-5-5-5-5-8-8-8-8-8-5-3-3-3-3-3-4-4-5-5-5-5----------|
A-5-5-5-5-5-5-8-8-8-8-8-5-3-3-3-3-3-4-4-5-5-5-5----------|
E-3-3-3-3-3-3-6-6-6-6-6-3-1-1-1-1-1-2-2-3-3-3-3-3-3-3-3--|

Still not 100% about the whole thing, but it sounds pretty good to me.
Tap to rate this tab
 
# A B C D E F G H I J K L M N O P Q R S T U V W X Y Z