Song name
# A B C D E F G H I J K L M N O P Q R S T U V W X Y Z

Breeders - Divine Hammer tab

Guitar 1: Kim, capo 6th fret (figured that out from watching a performance)
Guitar 2: Kelly, tuned down to Eb standard

Guitar 1 verses are the following chords:
E, A, F#, B

Guitar 2 intro:
Eb---------------------------------------|
Bb---------------------------------------|
Gb---------------------------------------|
Db---------------------------------------|
Ab--6-----4-6-----4-6-----4-6-------4-6--|
Eb--------------------------------7------|

After that, guitar 2 goes:
Eb---------------------------|
Bb---------------------------|
Gb----8-8-8-9---8------------|
Db----9-9-9-9---9------------|
Ab---------------------------|
Eb---------------------------|

Guitar 2 does something similar with the same rhythm after the solo:
Eb----11-11-11-12---11-------|
Bb----12-12-12-12---12-------|
Gb---------------------------|
Db---------------------------|
Ab---------------------------|
Eb---------------------------|

Guitar 1 plays these chords during the chorus:
A, E

Guitar 2 solo:
Eb-------------------------------------------------|
Bb-------------------------------------------------|
Gb-------------------------------------------------|
Db-------------------------------------------------|
Ab-----------2--4--6---6--4---4-2----2-1-2--1-1//2-|
Eb--0--2--4----------------------------------------|

Eb-----------------------------------------------------------------------|
Bb-----------------------------------------------------------------------|
Gb--------------------------------------------------------4//16-16-16-16-|
Db---------------------------------------------1-4---4-6-----------------|
Ab-----------2--4--6---6---4---4-2---2----2-4------6---------------------|
Eb--0--2--4-----------------------------4--------------------------------|

The other tab on here was mostly correct, except for a few differences in the solo and 
the inclusion of Kim's guitar part.
Tap to rate this tab
# A B C D E F G H I J K L M N O P Q R S T U V W X Y Z