Song name
# A B C D E F G H I J K L M N O P Q R S T U V W X Y Z

Breeders - Divine Hammer tab

Chords:

I'm just looking for
Just looking for a way around...
------------------------------------------------------|
------8------10---------------------------------------|
---7--8--9---10---------------------------------------|
---8--8--10--10---------------------------------------|
---8--6--10--8----------------------------------------|
---6-----8--------------------------------------------| repeat

One divine hammer
One divine hammer...
-------------------------------------------------------|
---8---------------------------------------------------|
---8--7------------------------------------------------|
---8--8------------------------------------------------|
---6--8------------------------------------------------|
------6------------------------------------------------|

Solo: Kim's guitar
------------------------------------|
------8------8----------------------|
---7--8--10--8----------------------|
---8--8--10--8----------------------|
---8--6--10--6----------------------|
---6-----8--------------------------|repeat
Tap to rate this tab
 
# A B C D E F G H I J K L M N O P Q R S T U V W X Y Z