Song name
# A B C D E F G H I J K L M N O P Q R S T U V W X Y Z

Breeders - No Aloha tab

Band: The Breeders
Song: No Aloha

Intro
-------------------------------------------|
----------7--8-----------------------------|
---9---7--7--8--9---10---------------------|
---10--8--7--8--10--11---------------------|
---10--8--5--6--10--11---------------------|
---8---6--------8---9----------------------|

Pre chorus:
-------------------------------------------|
-----7-------------------------------------|
--7--7--4--/13-----------------------------|
--8--7--5--/14-----------------------------|
--8--5--5--/14-----------------------------|
--6-----3--/12-----------------------------|


Chorus:
-------------------------------------------|
------7--8---------------------------------|
---7--7--8--9---10-------------------------|
---8--7--8--10--11-------------------------|
---8--5--6--10--11-------------------------|
---6--------8---9--------------------------|

Ending Chorus:
-------------------------------------------|
-----7-------------------------------------|
--7--7--4--/13-----------------------------|
--8--7--5--/14-----------------------------|
--8--5--5--/14-----------------------------|
--6-----3--/12-----------------------------|
Tap to rate this tab
# A B C D E F G H I J K L M N O P Q R S T U V W X Y Z