Guitaretab - guitar tabs
Song name
# A B C D E F G H I J K L M N O P Q R S T U V W X Y Z

Breeders - Off You tab

Figure 1:

e  ------------------------------|
b  ------------------------------|
G  ------------------------------|
D  8-8-8---8-8-8---8-8-8---8-8-8-|
A  8-8-8---8-8-8---8-8-8---8-8-8-|
E  6-6-6---6-6-6---6-6-6---6-6-6-|

Figure 2:

e  ------------------------------------------------|
b  ------------------------------------------------|
G  ------------------------------------------------|
D  8>>12-12---12-12-12---12-12-12---12-12-12-11-11-|
A  8>>12-12---12-12-12---12-12-12---12-12-12-11-11-|
E  6>>10-10---10-10-10---10-10-10---10-10-10--9--9-|

Figure 3:

e  ------------------------------------------------------------------------|
b  ------------------------------------------------------------------------|
G  ------------------------------------------------------------------------|
D  8>>12-12---12-12-12---12-12-12---12-12-12-11-11-10-10-10-10-10-10-10-10-|
A  8>>12-12---12-12-12---12-12-12---12-12-12-11-11-10-10-10-10-10-10-10-10-|
E  6>>10-10---10-10-10---10-10-10---10-10-10--9--9--8--8--8--8--8--8--8--8-|  . . .

e  ------------------------------------------------------------------------|
b  ------------------------------------------------------------------------|
G  ------------------------------------------------------------------------|
D  4-4-4-4-4-4-4-4-3-3-3-3-3-3-3-3-13-13-13-13-13-13-13-13-----------------|
A  4-4-4-4-4-4-4-4-3-3-3-3-3-3-3-3-13-13-13-13-13-13-13-13-----------------|
E  2-2-2-2-2-2-2-2-1-1-1-1-1-1-1-1-11-11-11-11-11-11-11-11-----------------|
[ Tab from: http://www.guitaretab.com/b/breeders/36424.html ]
Figure 4:

e  ----------------------------------------------------------------------------------------|
b  ----------------------------------------------------------------------------------------|
G  ----------------------------------------------------------------------------------------|
D  8-8-8-8-8-8-8-8-10-10-10-10-10-10-10-10-12-12-12-12-12-12-12-12-11-11-11-11-11-11-11-11-|
A  8-8-8-8-8-8-8-8-10-10-10-10-10-10-10-10-12-12-12-12-12-12-12-12-11-11-11-11-11-11-11-11-|
E  6-6-6-6-6-6-6-6--8--8--8--8--8--8--8--8-10-10-10-10-10-10-10-10--9--9--9--9--9--9--9--9-|

Figure 5:

e  --------------------------------------------------------------------------------|
b  --------------------------------------------------------------------------------|
G  --------------------------------------------------------------------------------|
D  8-8-8-8-10-10-10-10-12-12-12-12-13-13-13-13-13-13-13-13-13-13-13-13-13-13-13-13-|
A  8-8-8-8-10-10-10-10-12-12-12-12-13-13-13-13-13-13-13-13-13-13-13-13-13-13-13-13-|
E  6-6-6-6--8--8--8--8-10-10-10-10-11-11-11-11-11-11-11-11-11-11-11-11-11-11-11-11-|


This is simply the song structure. I really don't feel like organizing it for you, but
if you listen to the song it should be fairly easy to apply the above figures.  The little,
melow soloie parts are left out because I didn't feel like tabbing it, but if you
toy around a little, the solo is pretty much finger picking the above chords n'sync with the
rythm guitar. Will you marry me Kim? Werd. Thanx.
-Nicky G.
Related for Off You tab
Advertisement will be closed in 10 seconds