Guitaretab - guitar tabs
Song name
# A B C D E F G H I J K L M N O P Q R S T U V W X Y Z

Brendan Benson - What Im Looking For tab

-------------------------------------------------------------------------------
			     What I'm Looking For - Brendan Benson
-------------------------------------------------------------------------------
Tabbed by:xx_mclovin_xx
Email:

Tuning:eadgbe

Chords were good, but there was no electrical guitar part

Electrical Guitar Part

Enters in at (0:39)
E|----------------|
B|-10\1-3---------|
G|--------2-------|
D|----------2h3-3~|
A|----------------|
E|----------------|

No electric guitar until (1:11)
E|-------1-0h1p0h1p0~--------------------|
B|---1-----------------3-3---------------|
G|-----2--------------2---2-3p2h3p2h3p2~-|
D|-3-------------------------------------|
A|---------------------------------------|
E|---------------------------------------|

E|-------1-0h1p0h1p0~-------3p1---------------|
B|---1-----------------3-3------3p1-----------|
G|-----2--------------2---2---------2h3-2-----|
D|-3--------------------------------------2h3~|
A|--------------------------------------------|
E|--------------------------------------------|
[ Tab from: http://www.guitaretab.com/b/brendan-benson/69815.html ]
No guitar again until (1:44)
E|-1~-------------3~--------------------|
B|-1~-------------3~--------------------|
G|-2~-------------4~--------------------|
D|-3~-------------5~--------------------|
A|-3~-------------5~----------------12\-|
E|-1~-------------3~----------------12\-|

Enters back in at (1:56)
E|-------------------------1---3/5~-|
B|-10\1-3----------1---3------------|
G|--------2----------2---2---2------|
D|----------2h3-3~------------------|
A|----------------------------------|
E|----------------------------------|

Until the end (2:28)
E|------------------------|
B|-------1-3333333333333~-|
G|---2-2------------------|
D|-3----------------------|
A|------------------------|
E|------------------------|

E|-------1-0h1p0h1p0~--------------------|
B|---1-----------------3-3---------------|
G|-----2--------------2---2-3p2h3p2h3p2~-|
D|-3-------------------------------------|
A|---------------------------------------|
E|---------------------------------------|

E|-------1-0h1p0h1p0~-------3p1---------------|
B|---1-----------------3-3------3p1-----------|
G|-----2--------------2---2---------2h3-2-----|
D|-3--------------------------------------2h3~|
A|--------------------------------------------|
E|--------------------------------------------|

(E|----1---1-|)
(B|---1---1--|)
(G|--2---2---|)
(D|-3---0----|)
(A|----------|)
(E|----------|)
Keeps repeating until the end of the song

| /  slide up
| \  slide down
| h  hammer-on
| p  pull-off
| ~  vibrato
| +  harmonic
| x  Mute note
===============================================================================
Related for What Im Looking For tab