Song name
# A B C D E F G H I J K L M N O P Q R S T U V W X Y Z

Brendon Small - Living In The Blue tab

---------------------------------0-----|
-------------------------1-------------|
-----------------0-----------0---------|
---------2-----------------------------|
-------------2-------3-----------------|
-----0---------------------------------|

---------------------------------3-----|
-----------------3-------3-------------|
---------0-----------0-------2---------|
-------------0-------------------------|
---------------------------------------|
-----3---------------------------------|

-----2---0---2---3---2---0------|R
--------------------------------|E from begining
--------------------------------|P
--------------------------------|E
--------------------------------|A
--------------------------------|T

 Part 2

-------------0---0---0---0---0---0-----|
-------------0---1---1---1---1---0-----|
-------------0---0---0---0---0---0-----|
-------------2---0---0---0---0---0-----|
-------------2---3---3---3---3---0-----|
-----0---0---0---0---0---0---0---0-----|

-------------0---2---2---2---2----------|R
-------------3---3---3---3---3----------|E
-------------0---2---2---2---2P  PART 2-|
-------------0---0---0---0---0----------|E
-------------0--------------------------|A
-----3---3---3--------------------------|T

End Rift

-----3---2---3---2---0---2---3---2---0-----|
---------------------0---------------1-----|
---------------------0---------------0-----|
---------------------2---------------0-----|
---------------------2---------------3-----|
---------------------0---------------0-----|

-----2---3---2---0---2---3---2---2---2---3---2---------------3-|
-----------------3---------------3-----------------------0-----|
-----------------0---------------2-------------------0---------|The
-----------------0---------------0---------------0-------------|End
-----------------0---------------------------------------------|
-----------------3---------------------------------------------|
Tap to rate this tab
 
# A B C D E F G H I J K L M N O P Q R S T U V W X Y Z