Brendon Small - Guitarmageddon tab

HIGH E STRING IS TUNED TO D

|-9-5-9-5-0-5-9--5-0-|-9-5-9-5-0--7--0-7-|
|--------------------|-------------------|
|--------------------|-------------------|
|--------------------|-------------------|
|--------------------|-------------------|
|--------------------|-------------------|


|-12-9-12-9-0-10-14-10-12-|-21-12-9-0-19-12-9-0-21-12-9-0-19-12-9-0-|
|-------------------------|-----------------------------------------|
|-------------------------|-----------------------------------------|
|-------------------------|-----------------------------------------|
|-------------------------|-----------------------------------------|
|-------------------------|-----------------------------------------|


|-12-10-12-10-0-9-10-0-7-10-|-12-7-12-7-0-7-12--7-0-|
|---------------------------|-----------------------|
|---------------------------|-----------------------|
|---------------------------|-----------------------|
|---------------------------|-----------------------|
|---------------------------|-----------------------|


|-9-7-9-7-0-5-7-5-0-|-5-0-4--5-----|
|-------------------|--------------|
|-------------------|--------------|
|-------------------|-----------5--|
|-------------------|-----------5--|
|-------------------|-----------3--|
Tap to rate this tab
 
# A B C D E F G H I J K L M N O P Q R S T U V W X Y Z