Song name
# A B C D E F G H I J K L M N O P Q R S T U V W X Y Z

Brennin Hunt - How We Make It tab

-------------------------------------------------------------------------------
			    How we make it - Brennin Hunt
-------------------------------------------------------------------------------
Tabbed by:Jeff Kamungu
Email:geoffykom@yahoo.com

Tuning:Standard

Intro: A             A+         F#m            Dalt           Dmaj7	     Dm			  

e|-----------|-----------|-2----2-----|-2---2-------|-2-----2--|-5----5-------|
B|-5--5------|-5--5------|-2----2-----|-2---2-------|-2-----2--|-6----6-------|
G|-6--6------|-6--6------|-2----2-----|-2---2-------|-2-----2--|-7----7-------|
D|-7--7------|-7--7------|-4----4-----|-1---1-------|-0-----0--|-7----7-------|
A|-7--7------|-8--8------|------------|-------------|----------|-5----5-------|
E|-5---------|-----------|------------|-------------|----------|--------------|
    
   A           A/E alt


e|-5---5-----|-----------|
B|-5---5-----|-----5-----|
G|-6---6-----|----5------|
D|-7---7-----|---6-------|
A|-7---7-----|--7--------|
E|-5---5-----|-0---------|

Verse:
Hello Darling....

    A             A+         F#m                       Dmaj7	     Dm			  

e|-----------|-----------|-2----2-----|-2---2-------|-2-----2--|-5----5-------|
B|-5--5------|-5--5------|-2----2-----|-2---2-------|-2-----2--|-6----6-------|
G|-6--6------|-6--6------|-2----2-----|-2---2-------|-2-----2--|-7----7-------|
D|-7--7------|-7--7------|-4----4-----|-1---1-------|-0-----0--|-7----7-------|
A|-7--7------|-8--8------|------------|-------------|----------|-5----5-------|
E|-5---------|-----------|------------|-------------|----------|--------------|

      A

e|-5-----5---|-x---x-----|---------------------------------------------------|
B|-5-----5---|-5---5-----|---------------------------------------------------|
G|-6-----6---|-5---5-----|---------------------------------------------------|
D|-7-----7---|-6---6-----|---------------------------------------------------|
A|-7-----7---|-7---7-----|---------------------------------------------------|
E|-5-----5---|-0---0-----|---------------------------------------------------|


    A             A+         F#m          G             Dmaj7	     Dm			  

e|-----------|-----------|-2----2-----|-3---3-------|-2-----2--|-5----5-------|
B|-5--5------|-5--5------|-2----2-----|-3---3-------|-2-----2--|-6----6-------|
G|-6--6------|-6--6------|-2----2-----|-4---4-------|-2-----2--|-7----7-------|
D|-7--7------|-7--7------|-4----4-----|-5---5-------|-0-----0--|-7----7-------|
A|-7--7------|-8--8------|------------|-------------|----------|-5----5-------|
E|-5---------|-----------|------------|-------------|----------|--------------|

      A         E
e|-5----5----|-0----------|--------------------------------------------------|
B|-5----5----|-0----------|--------------------------------------------------|
G|-6----6----|-1----------|--------------------------------------------------|
D|-7----7----|-2----------|--------------------------------------------------|
A|-7----7----|-2-------0--|--------------------------------------------------|
E|-5----5----|-0--0-2-----|--------------------------------------------------|

Chorus
     Asus       E       F#m sus     Dsus4    Asus      Db7        F#msus

e|-0---0---|-0----0---|-0----0--|-0----0--|-0---0--|-4---4----|-0------0-----|
B|-0---0---|-0----0---|-0----0--|-3----3--|-0---0--|-6---6----|-0------0-----|
G|-2---2---|-1----1---|-2----2--|-2----2--|-2---2--|-4---4----|-2------2-----|
D|-2---2---|-2----2---|-4----4--|-0----0--|-2---2--|-6---6----|-4------4-----|
A|-0---0---|-2----2---|-4----4--|---------|-0---0--|-4---4----|-4------4-----|
E|---------|-0----0---|-2----2--|---------|--------|----------|-2------2-----|
 
 Woooh wooooooh love
   D           E
   
e|-2-------|-0------|
B|-3-------|-0------|
G|-2-------|-1------|
D|-0-------|-2------|
A|---------|-2------|
E|---------|-0------|

    Asus       Db7       F#msus               D       Dm      A

e|-0---0---|-4---4---|--0----0--|-2---2--|-2---2--|-5---5--|-5--5--|---------|
B|-0---0---|-6---6---|--0----0--|-2---2--|-3---3--|-6---6--|-5--5--|-----5---|
G|-2---2---|-4---4---|--2----2--|-2---2--|-2---2--|-7---7--|-6--6--|----5----|
D|-2---2---|-6---6---|--4----4--|-1---1--|-0---0--|-7---7--|-7--7--|---6-----|
A|-0---0---|-4---4---|--4----4--|--------|--------|-5---5--|-7--7--|--7------|
E|---------|---------|--2----2--|--------|--------|--------|-5--5--|-0-------|

Verse 2:

Chorus:

Bridge

      G        D/F#        A       D/F(passing)  G        D/F#       A

e|-3----3--|----------|-2---2---|-----------|-3----3--|----------|-2---2---|
B|-3----3--|-3---3----|-2---2---|-3---------|-3----3--|-3---3----|-2---2---|
G|-0----0--|-2---2----|-2---2---|-2---------|-0----0--|-2---2----|-2---2---|
D|-0----0--|-0---0----|-2---2---|-0---------|-0----0--|-0---0----|-2---2---|
A|-2----2--|-x---x----|-0---0---|-x---------|-2----2--|-x---x----|-0---0---|
E|-3----3--|-2---2----|---------|-2---------|-3----3--|-2---2----|---------|

   G        D/F#        A       D/F(passing)  G        D/F#       E

e|-3----3--|----------|-2---2---|-----------|-3----3--|----------|-0---0---|
B|-3----3--|-3---3----|-2---2---|-3---------|-3----3--|-3---3----|-0---0---|
G|-0----0--|-2---2----|-2---2---|-2---------|-0----0--|-2---2----|-1---1---|
D|-0----0--|-0---0----|-2---2---|-0---------|-0----0--|-0---0----|-2---1---|
A|-2----2--|-x---x----|-0---0---|-x---------|-2----2--|-x---x----|-2---2---|
E|-3----3--|-2---2----|---------|-2---------|-3----3--|-2---2----|-0---0---|


Solo:
Chorus:
End...

Video:http://www.youtube.com/watch?v=NJSu8t5tyUg
Tap to rate this tab
# A B C D E F G H I J K L M N O P Q R S T U V W X Y Z