Song name
# A B C D E F G H I J K L M N O P Q R S T U V W X Y Z

Brenton Brown - Joyful tab

EADGBe tunning
Pre chorus
play D chord (ring)

Chorus (for all Chorus):
E|--------------------------------------------------------------------------|
A|--------------------------------------------------------------------------|
D|--------------------------------------------------------------------------|
G|-12-12-12-----------12-12-11-11-11---------11-11-9-9-9-------9-9-9--------|
B|--------------------------------------------------------------------------|
e|----------10-10-10----------------10-10-10-------------9-9-9--------------|

E|--------------------------------------------|
A|--------------------------------------------|
D|--------------------------------------------|
G|--11-11-11----------11-11-12-12-12----------|
B|--------------------------------------------|
e|-----------10-10-10----------------10-10-10-|

E|-----------------------------------------------------------------------||
A|-----------------------------------------------------------------------||
D|-----------------------------------------------------------------------||
G|-12-12-12--------12-12-11-11-11--------11-11-9-9-9------9-9-9-9-9------||
B|-----------------------------------------------------------------------||
e|---------10-10-10--------------10-10-10------------9-9-9----------9~~~-||

Bridge:
E|----------------------------------------------------------------------|
A|----------------------------------------------------------------------|
D|----------------------------------------------------------------------|
G|----------------------------------------------------------------------|
B|---------------------------15--------14----15---12----14--15---14--12-|
E|--12----14-15---12----14--------12------------------------------------|

E|---------------------------------------------------------------------||
A|---------------------------------------------------------------------||
D|---------------------------------------------------------------------||
G|---------------------------------------------------------------------||
B|---------------------------15-15/17-15-------------------------------||
E|--12----14-15---12----14-----------------12--------------------------||
Tap to rate this tab
# A B C D E F G H I J K L M N O P Q R S T U V W X Y Z