Song name
# A B C D E F G H I J K L M N O P Q R S T U V W X Y Z

Bret Michaels Band - Go That Far tab

Im fed up with the crap tabs for this song.. so here are soome decent ones..


Intro

E|--------------------------------------------|
B|--------------------------------------------|
G|--------------------------------------------|
D|-2-4--7/9-7/9-7/9-9-2-4-4-4-4--2-4--7/9-7/9-|
A|-2-4--7/9-7/9-7/9-9-2-4-4-4-4--2-4--7/9-7/9-|
E|-0-2--5/7-5/7-5/7-7-0-2-2-2-2--0-2--5/7-5/7-|

"Hey Hey Hey Hey Hey!

Pre-Verse

Lead Guitar - The bend is a very sharp one, listen to the track for a timing and an idea.

E|-------------------| x3 -Then on the 3rd Time its: E|-----|  - Play the 
B|-------------------|                               B|-----|    pre verse
G|-------------------|                               G|-4---|  twice through
D|-4b5r4p2-4b5r4p2-4-|                               D|-4b5-|
A|-------------------|                               A|-----|
E|-------------------|                               E|-----| 

Rhythm Guitar: This is played very lightly and isnt easy to hear
E|--------------------------------------------|
B|--------------------------------------------|
G|--------------------------------------------|
D|-2-4--7/9-7/9-7/9-9-2-4-4-4-4--2-4--7/9-7/9-|
A|-2-4--7/9-7/9-7/9-9-2-4-4-4-4--2-4--7/9-7/9-|
E|-0-2--5/7-5/7-5/7-7-0-2-2-2-2--0-2--5/7-5/7-|

Verse 

Rhythm Guitar: - Kepp playing until Pre-Chorus
E|-------------------------------|
B|-------------------------------|
G|-------------------------------|
D|-------------------------------|
A|-------------------------------|
E|-2-2-2-2-2-2-2-2-2-2-2-2-2-2-2-|
   |-------Palm Muted----------|

Lead Guitar: - After Bret says "Gonna get you off like theres no one else"
Rhythm Guitar:
E|---------------------| 
B|---------------------|
G|-----4-----4-----4---|
D|-4---4-4---4-4---4-4-|
A|-4---2-4---2-4---2-4-|
E|-2-----2-----2-----2-|


Pre Chorus

Rhythm Guitar: (Whilst using Wah Pedal)
E|-----------------------------------------------------------------|
B|-----------------------------------------------------------------|
G|-6-6-6-6-6-6-6-6-4-4-4-4-4-4-4-4---------------------------------|
D|-6-6-6-6-6-6-6-6-4-4-4-4-4-4-4-4-4-4-4-4-4-4-4-4-4-4-4-4-4-4-4-4-|
A|-4-4-4-4-4-4-4-4-2-2-2-2-2-2-2-2-4-4-4-4-4-4-4-4-4-4-4-4-4-4-4-4-|
E|---------------------------------2-2-2-2-2-2-2-2-2-2-2-2-2-2-2-2-|

E|---------------------------------|
B|---------------------------------|
G|-6-6-6-6-6-6-6-6-4-4-4-4-4-4-4-4-|
D|-6-6-6-6-6-6-6-6-4-4-4-4-4-4-4-4-|
A|-4-4-4-4-4-4-4-4-2-2-2-2-2-2-2-2-|
E|---------------------------------|


Chorus

Lead Guitar
E|-------------------| x3 - 3rd Time its:            E|-----|  - Play the 
B|-------------------|                               B|-----|     Chorus
G|-------------------|                               G|-4---|  twice through
D|-4b5r4p2-4b5r4p2-4-|                               D|-4b5-|
A|-------------------|                               A|-----|
E|-------------------|                               E|-----| 

Rhythm Guitar
E|----| - Listen to track again for timing
B|----|
G|----|
D|-4--|
A|-4--|
E|-2--|

Pre Verse

Lead Guitar: - Only Lead and Bass play here
E|-------------------| x2         
B|-------------------|                              
G|-------------------|                           
D|-4b5r4p2-4b5r4p2-4-|                               
A|-------------------|                               
E|-------------------|

Both Guitars:
E|--------------------------------------------------------|
B|--------------------------------------------------------|
G|--------------------------------------------------------|
D|-2-4--7/9-7/9-7/9-9-2-4-4-4-4--2-4--7/9-7/9-9-9-9-9-9-9-|
A|-2-4--7/9-7/9-7/9-9-2-4-4-4-4--2-4--7/9-7/9-9-9-9-9-9-9-|
E|-0-2--5/7-5/7-5/7-7-0-2-2-2-2--0-2--5/7-5/7-7-7-7-7-7-7-|



[Verse]
[Pre-chorus]
[Chorus]

Pre-Solo

Lead Guitar:
E|-------------------| x4         
B|-------------------|                              
G|-------------------|                           
D|-4b5r4p2-4b5r4p2-4-|                               
A|-------------------|                               
E|-------------------|

Im not sure on the solo as of yet but im workign on it and when ive got it down ill tab it out.

Solo

Rhythm Guitar: - While lead plays solo 
E|--------------------------------------------------------| x2
B|--------------------------------------------------------|
G|--------------------------------------------------------|
D|-2-4--7/9-7/9-7/9-9-2-4-4-4-4--2-4--7/9-7/9-9-9-9-9-9-9-|
A|-2-4--7/9-7/9-7/9-9-2-4-4-4-4--2-4--7/9-7/9-9-9-9-9-9-9-|
E|-0-2--5/7-5/7-5/7-7-0-2-2-2-2--0-2--5/7-5/7-7-7-7-7-7-7-|

"Now your filled with rope, youre going V.I.P"

Lead Guitar:
E|-------------------------------|
B|-------------------------------|
G|-------------------------------|
D|-------------------------------|
A|-------------------------------|
E|-2-2-2-2-2-2-2-2-2-2-2-2-2-2-2-|
   |-------Palm Muted----------|

Rhythm Guitar:
E|---------------------| 
B|---------------------|
G|-----4-----4-----4---|
D|-4---4-4---4-4---4-4-|
A|-4---2-4---2-4---2-4-|
E|-2-----2-----2-----2-|



[Chorus]
[Intro]

 
 Key:
 / - Slide Up 
 b - Bend
 r - Release
 p - Pull Off


Tap to rate this tab
# A B C D E F G H I J K L M N O P Q R S T U V W X Y Z