Song name
# A B C D E F G H I J K L M N O P Q R S T U V W X Y Z

Bret Michaels Band - Go That Far tab

-------------------------------------------------------------------------------
     Go That Far  Bret Michaels
-------------------------------------------------------------------------------
Tabber: lDGlHax0r
Album: Guitar Hero III
Year: 2004
Length: 2:49
Tuning: Standard E
Difficulty: 2/10

Guitar I   -  Lead
Guitar II  -  Rhythm

** = Section


Dist = Distortion
Wah = Wah
Trem = Tremolo

| /    slide up
| \    slide down
| h    hammer-on
| p    pull-off
| ~    vibrato
| b    bend
| .    muted note  
| ()   tied note
| []*  artificial harmonic
| []   natural harmonic


Most of the tabs of this song aren't very accurate or finished.
Except the previous version, but none of them had all the parts
so I decided to make this tab because it's a fairly easy song to
play and even the solo once you get used to it.



**Intro**


..Guitar I (Dist)
E|--------------------------------|--------------------------------|
B|--------------------------------|--------------------------------|
G|--------------------------------|--------------------------------|
D|------2-4---2-4---2-4-4---------|------2-4---2-4-----------------|
A|2-4---0-2---0-2---0-2-2-2-4-4-4-|2-4---0-2---0-2-----------------|
E|0-2---------------------0-2-2-2-|0-2-----------------------------|
 |                                                                 |
 |Guitar II (Dist)                                                 |
E|--------------------------------|--------------------------------|
B|--------------------------------|--------------------------------|
G|--------------------------------|--------------------------------|
D|--------------------------------|--------------------------------|
A|--------------------------------|--------------------------------|
E|--------------------------------|--------------------------------|



**Riff**


..Guitar I
E|--------------------------------|--------------------------------|
B|--------------------------------|--------------------------------|
G|--------------------------------|--------------------------------|
D|----4h5p4---2---4h5p4---2---4---|----4h5p4---2---4h5p4---2---4---|
A|--------------------------------|--------------------------------|
E|--------------------------------|--------------------------------|
 |                                                                 |
 |Guitar II                                                        |
E|--------------------------------|--------------------------------|
B|--------------------------------|--------------------------------|
G|--------------------------------|--------------------------------|
D|------------2---4-------2---4---|----2---4---4-------------------|
A|2---4-------0---2-------0---2---|----0---2---2---2---4---4---4---|
E|0---2---------------------------|----------------0---2---2---2---|


..Guitar I
E|--------------------------------|--------------------------------|
B|--------------------------------|--------------------------------|
G|--------------------------------|4^5---------4^5--------(4)------|
D|----4h5p4---2---4h5p4---2---4---|4^5---------4^5--------(4)------|
A|--------------------------------|--------------------------------|
E|--------------------------------|--------------------------------|
 |                                                                 |
 |Guitar II                                                        |
E|--------------------------------|--------------------------------|
B|--------------------------------|--------------------------------|
G|--------------------------------|--------------------------------|
D|------------2---4-------2---4---|----4---4---4---4---4---4---4---|
A|2---4-------0---2-------0---2---|----2---2---2---2---2---2---2---|
E|0---2---------------------------|----2---2---2---2---2---2---2---|


..Guitar I
E|--------------------------------|--------------------------------|
B|--------------------------------|--------------------------------|
G|--------------------------------|--------------------------------|
D|----4h5p4---2---4h5p4---2---4---|----4h5p4---2---4h5p4---2---4---|
A|--------------------------------|--------------------------------|
E|--------------------------------|--------------------------------|
 |                                                                 |
 |Guitar II                                                        |
E|--------------------------------|--------------------------------|
B|--------------------------------|--------------------------------|
G|--------------------------------|--------------------------------|
D|------------2---4-------2---4---|----2---4---4-------------------|
A|2---4-------0---2-------0---2---|----0---2---2---2---4---4---4---|
E|0---2---------------------------|----------------0---2---2---2---|


..Guitar I
E|--------------------------------|--------------------------------|
B|--------------------------------|--------------------------------|
G|--------------------------------|4^5---------4^5--------(4)------|
D|----4h5p4---2---4h5p4---2---4---|4^5---------4^5--------(4)------|
A|--------------------------------|--------------------------------|
E|--------------------------------|--------------------------------|
 |                                                                 |
 |Guitar II                                                        |
E|--------------------------------|--------------------------------|
B|--------------------------------|--------------------------------|
G|--------------------------------|--------------------------------|
D|------------2---4-------2---4---|----4---4---4---4---4---4---4---|
A|2---4-------0---2-------0---2---|----2---2---2---2---2---2---2---|
E|0---2---------------------------|----2---2---2---2---2---2---2---|



**Verse**


..Guitar I (Trem)
E|--------------------------------|--------------------------------|
B|--------------------------------|--------------------------------|
G|--------------------------------|--------------------------------|
D|--------------------------------|--------------------------------|
A|--------------------------------|--------------------------------|
E|2-2-2-2-2-2-2-2-2-2-2-2-2-2-2-2-|2-2-2-2-2-2-2-2-2-2-2-2-2-2-2-2-|
 |                                                                 |
 |Guitar II (Dist)                                                 |
E|--------------------------------|--------------------------------|
B|--------------------------------|--------------------------------|
G|--------------------------------|--------------------------------|
D|4-------------------------------|--------------------------------|
A|4-------------------------------|--------------------------------|
E|2-------------------------------|--------------------------------|


..Guitar I
E|--------------------------------|--------------------------------|
B|--------------------------------|--------------------------------|
G|--------------------------------|--------------------------------|
D|--------------------------------|--------------------------------|
A|--------------------------------|--------------------------------|
E|2-2-2-2-2-2-2-2-2-2-2-2-2-2-2-2-|2-2-2-2-2-2-2-2-2-2-2-2-2-2-2-2-|
 |                                                                 |
 |Guitar II                                                        |
E|--------------------------------|--------------------------------|
B|--------------------------------|--------------------------------|
G|--------------------------------|--------------------------------|
D|--------------------------------|--------------------------------|
A|--------------------------------|--------------------------------|
E|--------------------------------|--------------------------------|


..Guitar I
E|--------------------------------|--------------------------------|
B|--------------------------------|--------------------------------|
G|--------------------------------|--------------------------------|
D|--------------------------------|--------------------------------|
A|--------------------------------|--------------------------------|
E|2-2-2-2-2-2-2-2-2-2-2-2-2-2-2-2-|2-2-2-2-2-2-2-2-2-2-2-2-2-2-2-2-|
 |                                                                 |
 |Guitar II                                                        |
E|--------------------------------|--------------------------------|
B|--------------------------------|--------------------------------|
G|------------------------4-------|--------------------------------|
D|4-----------------------4-------|4-----------------------2-------|
A|4-----------------------2-------|4-----------------------2-------|
E|2-------------------------------|2-----------------------0-------|


..Guitar I
E|--------------------------------|--------------------------------|
B|--------------------------------|--------------------------------|
G|--------------------------------|--------------------------------|
D|--------------------------------|--------------------------------|
A|--------------------------------|--------------------------------|
E|2-2-2-2-2-2-2-2-2-2-2-2-2-2-2-2-|2-2-2-2-2-2-2-2-2-2-2-2-2-2-2-2-|
 |                                                                 |
 |Guitar II                                                        |
E|--------------------------------|--------------------------------|
B|--------------------------------|--------------------------------|
G|------------------------4-------|--------------------------------|
D|4-----------------------4-------|4-------------------------------|
A|4-----------------------2-------|4-------------------------------|
E|2-------------------------------|2-------------------------------|



**Pre Chorus**


..Guitar I (Wah)
E|--------------------------------|--------------------------------|
B|--------------------------------|--------------------------------|
G|--------6-----------------------|4-------4-----------------------|
D|6-------------------------------|4-------4-----------------------|
A|4-------------[4]-[4]-[4]-[4]---|---------------[2]-[2]-[2]-[2]--|
E|--------------------------------|--------------------------------|
 |                                                                 |
 |Guitar II (Dist)                                                 |
E|--------------------------------|--------------------------------|
B|--------------------------------|--------------------------------|
G|6-------6-----------6-------4---|--------4-----------4---4-------|
D|6-------6-----------6-------4---|--------4-----------4---4-------|
A|4-------4---4---4---4---4---2---|--------2---2---2---2---2---2---|
E|4-------4-----------4-------2---|--------2-----------2---2-------|


..Guitar I
E|--------------------------------|--------------------------------|
B|------------------7-------------|7h8p7---------------------------|
G|----------6h9-----------9-------|--------9-------6---------------|
D|--------------------------------|--------------------------------|
A|--------------------------------|--------------------------------|
E|--------------------------------|--------------------------------|
 |                                                                 |
 |Guitar II                                                        |
E|--------------------------------|--------------------------------|
B|--------------------------------|--------------------------------|
G|--------------------------------|--------------------------------|
D|4-------------------------------|--------------------2-------2---|
A|4-------------------------------|--------------------2-------2---|
E|2-------------------------------|--------------------0-------0---|


..Guitar I
E|--------------------------------|--------------------------------|
B|------------------7-------------|7h8p7---------------------------|
G|----------6h9-----------9-------|--------9-------6---------------|
D|--------------------------------|--------------------------------|
A|--------------------------------|--------------------------------|
E|--------------------------------|--------------------------------|
 |                                                                 |
 |Guitar II                                                        |
E|--------------------------------|--------------------------------|
B|--------------------------------|--------------------------------|
G|--------------------------------|--------------------------------|
D|4-------------------------------|--------------------------------|
A|4-------------------------------|--------------------4---4---4---|
E|2-------------------------------|--------------------2---2---2---|


..Guitar I (Wah)
E|--------------------------------|--------------------------------|
B|--------------------------------|--------------------------------|
G|----6-----6---------------------|4-------4-----------------------|
D|----6-----6---------------------|4-------4-----------------------|
A|---------------[4]-[4]-[4]-[4]--|---------------[2]-[2]-[2]-[2]--|
E|--------------------------------|--------------------------------|
 |                                                                 |
 |Guitar II (Dist)                                                 |
E|--------------------------------|--------------------------------|
B|--------------------------------|--------------------------------|
G|6-------------------6-------4---|--------------------------------|
D|6-------------------6-------4---|--------------------------------|
A|4-------4---4---4---4---4---2---|--------------------------------|
E|4-------------------4-------2---|--------------------------------|



**Chorus**


..Guitar I
E|--------------------------------|--------------------------------|
B|--------------------------------|--------------------------------|
G|--------------------------------|--------------------------------|
D|----4h5p4---2---4h5p4---2---4---|----4h5p4---2---4h5p4---2---4---|
A|--------------------------------|--------------------------------|
E|--------------------------------|--------------------------------|
 |                                                                 |
 |Guitar II                                                        |
E|--------------------------------|--------------------------------|
B|--------------------------------|--------------------------------|
G|--------------------------------|2-----------4-------4---4---4---|
D|2-----------4-------4---4---4---|2-----------4-------4---4---4---|
A|2-----------4-------4---4---4---|0-----------2-------2---2---2---|
E|0-----------2-------2---2---2---|0-----------2-------2---2---2---|


..Guitar I
E|--------------------------------|--------------------------------|
B|--------------------------------|--------------------------------|
G|--------------------------------|4^5---------4^5--------(4)------|
D|----4h5p4---2---4h5p4---2---4---|4^5---------4^5--------(4)------|
A|--------------------------------|--------------------------------|
E|--------------------------------|--------------------------------|
 |                                                                 |
 |Guitar II                                                        |
E|--------------------------------|--------------------------------|
B|--------------------------------|--------------------------------|
G|--------------------------------|2-----------4-------4---4---4---|
D|2-----------4-------4---4---4---|2-----------4-------4---4---4---|
A|2-----------4-------4---4---4---|0-----------2-------2---2---2---|
E|0-----------2-------2---2---2---|0-----------2-------2---2---2---|


..Guitar I
E|--------------------------------|--------------------------------|
B|--------------------------------|--------------------------------|
G|--------------------------------|--------------------------------|
D|----4h5p4---2---4h5p4---2---4---|----4h5p4---2---4h5p4---2---4---|
A|--------------------------------|--------------------------------|
E|--------------------------------|--------------------------------|
 |                                                                 |
 |Guitar II                                                        |
E|--------------------------------|--------------------------------|
B|--------------------------------|--------------------------------|
G|--------------------------------|2-----------4-------4---4---4---|
D|2-----------4-------4---4---4---|2-----------4-------4---4---4---|
A|2-----------4-------4---4---4---|0-----------2-------2---2---2---|
E|0-----------2-------2---2---2---|0-----------2-------2---2---2---|


..Guitar I
E|--------------------------------|--------------------------------|
B|--------------------------------|--------------------------------|
G|--------------------------------|4^5---------4^5--------(4)------|
D|----4h5p4---2---4h5p4---2---4---|4^5---------4^5--------(4)------|
A|--------------------------------|--------------------------------|
E|--------------------------------|--------------------------------|
 |                                                                 |
 |Guitar II                                                        |
E|--------------------------------|--------------------------------|
B|--------------------------------|--------------------------------|
G|--------------------------------|--------------------------------|
D|2---2---2---2---2---2---2---2---|2-------------------------------|
A|2---2---2---2---2---2---2---2---|2-------------------------------|
E|0---0---0---0---0---0---0---0---|0-------------------------------|



**Bridge**


..Guitar I
E|--------------------------------|--------------------------------|
B|--------------------------------|--------------------------------|
G|--------------------------------|--------------------------------|
D|----4h5p4---2---4h5p4---2---4---|----4h5p4---2---4h5p4---2---4---|
A|--------------------------------|--------------------------------|
E|--------------------------------|--------------------------------|


..Guitar I (Dist)
E|--------------------------------|--------------------------------|
B|--------------------------------|--------------------------------|
G|------2/4---2/4---2/4-4---------|------2/4---2-4*----------------|
D|2/4---------------------2/4-4-4-|2/4-----------------------------|
A|--------------------------------|--------------------------------|
E|--------------------------------|--------------------------------|
 |                                                                 |
 |Guitar II (Dist)                                                 |
E|--------------------------------|--------------------------------|
B|--------------------------------|--------------------------------|
G|--------------------------------|--------------------------------|
D|------2-4---2-4---2-4-4---------|------2-4---2-4---4-4-4-4-4-4-4-|
A|2-4---0-2---0-2---0-2-2-2-4-4-4-|2-4---0-2---0-2---2-2-2-2-2-2-2-|
E|0-2---------------------0-2-2-2-|0-2-----------------------------|



**Verse II**


..Guitar I
E|--------------------------------|--------------------------------|
B|--------------------------------|---------7-----7h8p7------------|
G|--------------------------------|---6h9------9------------9---6--|
D|--------------------------------|--------------------------------|
A|--------------------------------|--------------------------------|
E|--------------------------------|--------------------------------|
 |                                                                 |
 |Guitar II                                                        |
E|--------------------------------|--------------------------------|
B|--------------------------------|--------------------------------|
G|--------------------------------|-----------4-------4--------4---|
D|4-------------------------------|-----------4-------4--------4---|
A|4-------------------------------|-----------2-------2--------2---|
E|2-------------------------------|-------2------------------------|


..Guitar I
E|6h7p6---------------------------|---------------6^7------6^7-----|
B|--------------------------------|---------7----------------------|
G|--------------------------------|---6h9------9-------------------|
D|--------------------------------|--------------------------------|
A|--------------------------------|--------------------------------|
E|--------------------------------|--------------------------------|
 |                                                                 |
 |Guitar II                                                        |
E|--------------------------------|--------------------------------|
B|--------------------------------|--------------------------------|
G|--------------------------------|--------------------------------|
D|4-------------------------------|-----------2-------2--------2---|
A|4-------------------------------|-----------2-------2--------2---|
E|2-------------------------------|-------2---0-------0--------0---|


..Guitar I
E|7^8-----------------------------|---------------7h8p7----5-------|
B|--------------------------------|-----------------------------5--|
G|--------------------------------|--------------------------------|
D|--------------------------------|--------------------------------|
A|--------------------------------|--------------------------------|
E|--------------------------------|--------------------------------|
 |                                                                 |
 |Guitar II                                                        |
E|--------------------------------|--------------------------------|
B|--------------------------------|--------------------------------|
G|--------------------------------|-----------4-------4--------4---|
D|4-------------------------------|-----------4-------4--------4---|
A|4-------------------------------|-----------2-------2--------2---|
E|2-------------------------------|-------2------------------------|


..Guitar I
E|--------------------------------|--------------------------------|
B|7-------------------------------|--------------------------------|
G|--------------------------------|--------------------------------|
D|--------------------------------|--------------------------------|
A|--------------------------------|--------------------------------|
E|--------------------------------|--------------------------------|
 |                                                                 |
 |Guitar II                                                        |
E|--------------------------------|--------------------------------|
B|--------------------------------|--------------------------------|
G|--------------------------------|--------------------------------|
D|4-------------------------------|-----------2-------2--------2---|
A|4-------------------------------|-----------2-------2--------2---|
E|2-------------------------------|-------2---0-------0--------0---|



**Pre Chorus II**


..Guitar I (Wah)
E|--------------------------------|--------------------------------|
B|--------------------------------|--------------------------------|
G|--------6-----------------------|4-------4-----------------------|
D|6-------------------------------|4-------4-----------------------|
A|4-------------[4]-[4]-[4]-[4]---|---------------[2]-[2]-[2]-[2]--|
E|--------------------------------|--------------------------------|
 |                                                                 |
 |Guitar II (Dist)                                                 |
E|--------------------------------|--------------------------------|
B|--------------------------------|--------------------------------|
G|6-------6-----------6-------4---|--------4-----------4---4-------|
D|6-------6-----------6-------4---|--------4-----------4---4-------|
A|4-------4---4---4---4---4---2---|--------2---2---2---2---2---2---|
E|4-------4-----------4-------2---|--------2-----------2---2-------|


..Guitar I
E|--------------------------------|--------------------------------|
B|------------------7-------------|7h8p7---------------------------|
G|----------6h9-----------9-------|--------9-------6---------------|
D|--------------------------------|--------------------------------|
A|--------------------------------|--------------------------------|
E|--------------------------------|--------------------------------|
 |                                                                 |
 |Guitar II                                                        |
E|--------------------------------|--------------------------------|
B|--------------------------------|--------------------------------|
G|--------------------------------|--------------------------------|
D|4-------------------------------|--------------------2-------2---|
A|4-------------------------------|--------------------2-------2---|
E|2-------------------------------|--------------------0-------0---|


..Guitar I
E|--------------------------------|--------------------------------|
B|------------------7-------------|7h8p7---------------------------|
G|----------6h9-----------9-------|--------9-------6---------------|
D|--------------------------------|--------------------------------|
A|--------------------------------|--------------------------------|
E|--------------------------------|--------------------------------|
 |                                                                 |
 |Guitar II                                                        |
E|--------------------------------|--------------------------------|
B|--------------------------------|--------------------------------|
G|--------------------------------|--------------------------------|
D|4-------------------------------|--------------------------------|
A|4-------------------------------|--------------------4---4---4---|
E|2-------------------------------|--------------------2---2---2---|


..Guitar I (Wah)
E|--------------------------------|--------------------------------|
B|--------------------------------|--------------------------------|
G|----6-----6---------------------|4-------4-----------------------|
D|----6-----6---------------------|4-------4-----------------------|
A|---------------[4]-[4]-[4]-[4]--|---------------[2]-[2]-[2]-[2]--|
E|--------------------------------|--------------------------------|
 |                                                                 |
 |Guitar II (Dist)                                                 |
E|--------------------------------|--------------------------------|
B|--------------------------------|--------------------------------|
G|6-------------------6-------4---|--------------------------------|
D|6-------------------6-------4---|--------------------------------|
A|4-------4---4---4---4---4---2---|--------------------------------|
E|4-------------------4-------2---|--------------------------------|



**Chorus II**


..Guitar I
E|--------------------------------|--------------------------------|
B|--------------------------------|--------------------------------|
G|--------------------------------|--------------------------------|
D|----4h5p4---2---4h5p4---2---4---|----4h5p4---2---4h5p4---2---4---|
A|--------------------------------|--------------------------------|
E|--------------------------------|--------------------------------|
 |                                                                 |
 |Guitar II                                                        |
E|--------------------------------|--------------------------------|
B|--------------------------------|--------------------------------|
G|--------------------------------|2-----------4-------4---4---4---|
D|2-----------4-------4---4---4---|2-----------4-------4---4---4---|
A|2-----------4-------4---4---4---|0-----------2-------2---2---2---|
E|0-----------2-------2---2---2---|0-----------2-------2---2---2---|


..Guitar I
E|--------------------------------|--------------------------------|
B|--------------------------------|--------------------------------|
G|--------------------------------|4^5---------4^5--------(4)------|
D|----4h5p4---2---4h5p4---2---4---|4^5---------4^5--------(4)------|
A|--------------------------------|--------------------------------|
E|--------------------------------|--------------------------------|
 |                                                                 |
 |Guitar II                                                        |
E|--------------------------------|--------------------------------|
B|--------------------------------|--------------------------------|
G|--------------------------------|2-----------4-------4---4---4---|
D|2-----------4-------4---4---4---|2-----------4-------4---4---4---|
A|2-----------4-------4---4---4---|0-----------2-------2---2---2---|
E|0-----------2-------2---2---2---|0-----------2-------2---2---2---|


..Guitar I
E|--------------------------------|--------------------------------|
B|--------------------------------|--------------------------------|
G|--------------------------------|--------------------------------|
D|----4h5p4---2---4h5p4---2---4---|----4h5p4---2---4h5p4---2---4---|
A|--------------------------------|--------------------------------|
E|--------------------------------|--------------------------------|
 |                                                                 |
 |Guitar II                                                        |
E|--------------------------------|--------------------------------|
B|--------------------------------|--------------------------------|
G|--------------------------------|2-----------4-------4---4---4---|
D|2-----------4-------4---4---4---|2-----------4-------4---4---4---|
A|2-----------4-------4---4---4---|0-----------2-------2---2---2---|
E|0-----------2-------2---2---2---|0-----------2-------2---2---2---|


..Guitar I
E|--------------------------------|--------------------------------|
B|--------------------------------|--------------------------------|
G|--------------------------------|4^5---------4^5--------(4)------|
D|----4h5p4---2---4h5p4---2---4---|4^5---------4^5--------(4)------|
A|--------------------------------|--------------------------------|
E|--------------------------------|--------------------------------|
 |                                                                 |
 |Guitar II                                                        |
E|--------------------------------|--------------------------------|
B|--------------------------------|--------------------------------|
G|--------------------------------|--------------------------------|
D|2---2---2---2---2---2---2---2---|2-------------------------------|
A|2---2---2---2---2---2---2---2---|2-------------------------------|
E|0---0---0---0---0---0---0---0---|0-------------------------------|



**Bridge II**


..Guitar I
E|--------------------------------|--------------------------------|
B|--------------------------------|--------------------------------|
G|--------------------------------|--------------------------------|
D|----4h5p4---2---4h5p4---2---4---|----4h5p4---2---4h5p4---2---4---|
A|--------------------------------|--------------------------------|
E|--------------------------------|--------------------------------|
 |                                                                 |
 |Guitar II                                                        |
E|--------------------------------|--------------------------------|
B|--------------------------------|--------------------------------|
G|x---x---x---x---x---x---x---x---|x---x---x---x---x---x---x---x---|
D|x---x---x---x---x---x---x---x---|x---x---x---x---x---x---x---x---|
A|x---x---x---x---x---x---x---x---|x---x---x---x---x---x---x---x---|
E|x---x---x---x---x---x---x---x---|x---x---x---x---x---x---x---x---|


..Guitar I
E|--------------------------------|--------------------------------|
B|--------------------------------|--------------------------------|
G|--------------------------------|--------------------------------|
D|----4h5p4---2---4h5p4---2---4---|----4h5p4---2---4h5p4---2---4---|
A|--------------------------------|--------------------------------|
E|--------------------------------|--------------------------------|
 |                                                                 |
 |Guitar II                                                        |
E|2---2---2---2---2---2---2---2---|2---2---2---2---2---2---2---2---|
B|2---2---2---2---2---2---2---2---|2---2---2---2---2---2---2---2---|
G|--------------------------------|--------------------------------|
D|--------------------------------|--------------------------------|
A|--------------------------------|--------------------------------|
E|--------------------------------|--------------------------------|



**Solo**


..Guitar I(Wah)
E|--------------------------------|--------------------------------|
B|------7-------7h8p7-------------|--------------------------------|
G|--6h9-----9-----------9---6-----|------4-------4h5p4-------------|
D|--------------------------------|--4h7-----7-----------7---4-----|
A|--------------------------------|--------------------------------|
E|--------------------------------|--------------------------------|
 |                                                                 |
 |Guitar II                                                        |
E|--------------------------------|--------------------------------|
B|--------------------------------|--------------------------------|
G|--------------------------------|--------------------------------|
D|------------2---4-------2---4---|----2---4---4-------------------|
A|2---4-------0---2-------0---2---|----0---2---2---2---4---4---4---|
E|0---2---------------------------|----------------0---2---2---2---|


..Guitar I
E|--------------------------------|--------------------------------|
B|------7-------7h8p7-------------|12b14b12-10--12-----------------|
G|--6h9-----9-----------9---6-----|--------------------------------|
D|--------------------------------|--------------------[4]-[4]-[4]-|
A|--------------------------------|--------------------------------|
E|--------------------------------|--------------------------------|
 |                                                                 |
 |Guitar II                                                        |
E|--------------------------------|--------------------------------|
B|--------------------------------|--------------------------------|
G|--------------------------------|--------------------------------|
D|------------2---4-------2---4---|----4---4---4---4---4---4---4---|
A|2---4-------0---2-------0---2---|----2---2---2---2---2---2---2---|
E|0---2---------------------------|--------------------------------|


..Guitar I
E|12b14--12b14----12-14-12-7------|9p7h9p7h9p7h9-9-2---2---2-------|
B|--------------------------------|--------------------------------|
G|--------------------------------|--------------------------------|
D|--------------------------------|--------------------------------|
A|--------------------------------|--------------------------------|
E|--------------------------------|--------------------------------|
 |                                                                 |
 |Guitar II                                                        |
E|--------------------------------|--------------------------------|
B|--------------------------------|--------------------------------|
G|--------------------------------|--------------------------------|
D|------------2---4-------2---4---|----2---4---4-------------------|
A|2---4-------0---2-------0---2---|----0---2---2---2---4---4---4---|
E|0---2---------------------------|----------------0---2---2---2---|


..Guitar I
E|0/2---5---2---5-5/7---5---7-----|12h14----14--14--16--14---------|
B|--------------------------------|--------------------------------|
G|--------------------------------|--------------------------------|
D|--------------------------------|--------------------------------|
A|--------------------------------|--------------------------------|
E|--------------------------------|--------------------------------|
 |                                                                 |
 |Guitar II                                                        |
E|--------------------------------|--------------------------------|
B|--------------------------------|--------------------------------|
G|--------------------------------|--------------------------------|
D|------------2---4-------2---4---|----4---4---4---4---4---4---4---|
A|2---4-------0---2-------0---2---|----2---2---2---2---2---2---2---|
E|0---2---------------------------|--------------------------------|



**Verse III**


..Guitar I (Trem)
E|--------------------------------|--------------------------------|
B|--------------------------------|--------------------------------|
G|--------------------------------|--------------------------------|
D|--------------------------------|--------------------------------|
A|--------------------------------|--------------------------------|
E|2-2-2-2-2-2-2-2-2-2-2-2-2-2-2-2-|2-2-2-2-2-2-2-2-2-2-2-2-2-2-2-2-|
 |                                                                 |
 |Guitar II (Dist)                                                 |
E|--------------------------------|--------------------------------|
B|--------------------------------|--------------------------------|
G|--------------------------------|--------------------------------|
D|4-------------------------------|--------------------------------|
A|4-------------------------------|--------------------------------|
E|2-------------------------------|--------------------------------|


..Guitar I
E|--------------------------------|--------------------------------|
B|--------------------------------|--------------------------------|
G|--------------------------------|--------------------------------|
D|--------------------------------|--------------------------------|
A|--------------------------------|--------------------------------|
E|2-2-2-2-2-2-2-2-2-2-2-2-2-2-2-2-|2-2-2-2-2-2-2-2-2-2-2-2-2-2-2-2-|
 |                                                                 |
 |Guitar II                                                        |
E|--------------------------------|--------------------------------|
B|--------------------------------|--------------------------------|
G|--------------------------------|--------------------------------|
D|--------------------------------|--------------------------------|
A|--------------------------------|--------------------------------|
E|--------------------------------|--------------------------------|


..Guitar I
E|--------------------------------|--------------------------------|
B|--------------------------------|--------------------------------|
G|--------------------------------|--------------------------------|
D|--------------------------------|--------------------------------|
A|--------------------------------|--------------------------------|
E|2-2-2-2-2-2-2-2-2-2-2-2-2-2-2-2-|2-2-2-2-2-2-2-2-2-2-2-2-2-2-2-2-|
 |                                                                 |
 |Guitar II                                                        |
E|--------------------------------|--------------------------------|
B|--------------------------------|--------------------------------|
G|------------------------4-------|------------------------4-------|
D|4-----------------------4-------|4-----------------------4-------|
A|4-----------------------2-------|4-----------------------2-------|
E|2-------------------------------|2-------------------------------|


..Guitar I
E|--------------------------------|--------------------------------|
B|--------------------------------|--------------------------------|
G|--------------------------------|--------------------------------|
D|--------------------------------|--------------------------------|
A|--------------------------------|--------------------------------|
E|2-2-2-2-2-2-2-2-2-2-2-2-2-2-2-2-|2-2-2-2-2-2-2-2-2-2-2-2-2-2-2-2-|
 |                                                                 |
 |Guitar II                                                        |
E|--------------------------------|--------------------------------|
B|--------------------------------|--------------------------------|
G|------------------------4-------|--------------------------------|
D|4-----------------------4-------|4-------------------------------|
A|4-----------------------2-------|4-------------------------------|
E|2-------------------------------|2-------------------------------|



**Chorus III**


..Guitar I
E|--------------------------------|--------------------------------|
B|--------------------------------|--------------------------------|
G|--------------------------------|--------------------------------|
D|----4h5p4---2---4h5p4---2---4---|----4h5p4---2---4h5p4---2---4---|
A|--------------------------------|--------------------------------|
E|--------------------------------|--------------------------------|
 |                                                                 |
 |Guitar II                                                        |
E|--------------------------------|--------------------------------|
B|--------------------------------|--------------------------------|
G|--------------------------------|2-----------4-------4---4---4---|
D|2-----------4-------4---4---4---|2-----------4-------4---4---4---|
A|2-----------4-------4---4---4---|0-----------2-------2---2---2---|
E|0-----------2-------2---2---2---|0-----------2-------2---2---2---|


..Guitar I
E|--------------------------------|--------------------------------|
B|--------------------------------|--------------------------------|
G|--------------------------------|4^5---------4^5--------(4)------|
D|----4h5p4---2---4h5p4---2---4---|4^5---------4^5--------(4)------|
A|--------------------------------|--------------------------------|
E|--------------------------------|--------------------------------|
 |                                                                 |
 |Guitar II                                                        |
E|--------------------------------|--------------------------------|
B|--------------------------------|--------------------------------|
G|--------------------------------|2-----------4-------4---4---4---|
D|2-----------4-------4---4---4---|2-----------4-------4---4---4---|
A|2-----------4-------4---4---4---|0-----------2-------2---2---2---|
E|0-----------2-------2---2---2---|0-----------2-------2---2---2---|


..Guitar I
E|--------------------------------|--------------------------------|
B|--------------------------------|--------------------------------|
G|--------------------------------|--------------------------------|
D|----4h5p4---2---4h5p4---2---4---|----4h5p4---2---4h5p4---2---4---|
A|--------------------------------|--------------------------------|
E|--------------------------------|--------------------------------|
 |                                                                 |
 |Guitar II                                                        |
E|--------------------------------|--------------------------------|
B|--------------------------------|--------------------------------|
G|--------------------------------|2-----------4-------4---4---4---|
D|2-----------4-------4---4---4---|2-----------4-------4---4---4---|
A|2-----------4-------4---4---4---|0-----------2-------2---2---2---|
E|0-----------2-------2---2---2---|0-----------2-------2---2---2---|


..Guitar I                         (Trem)
E|--------------------------------|--------------------------------|
B|--------------------------------|--------------------------------|
G|--------------------------------|--------------------------------|
D|----4h5p4---2---4h5p4---2---4---|--------------------------------|
A|--------------------------------|--------------------------------|
E|--------------------------------|2-2-2-2-2-2-2-2-2-2-2-2-2-2-2-2-|
 |                                                                 |
 |Guitar II                                                        |
E|--------------------------------|--------------------------------|
B|--------------------------------|--------------------------------|
G|--------------------------------|--------------------------------|
D|2---2---2---2---2---2---2---2---|2-------------------------------|
A|2---2---2---2---2---2---2---2---|2-------------------------------|
E|0---0---0---0---0---0---0---0---|0-------------------------------|



**Outro**


..Guitar I
E|--------------------------------|--------------------------------|
B|--------------------------------|--------------------------------|
G|--------------------------------|--------------------------------|
D|--------------------------------|--------------------------------|
A|--------------------------------|--------------------------------|
E|2-2-2-2-2-2-2-2-2-2-2-2-2-2-2-2-|2-2-2-2-2-2-2-2-2-2-2-2-2-2-2-2-|
 |                                                                 |
 |Guitar II                                                        |
E|--------------------------------|--------------------------------|
B|--------------------------------|--------------------------------|
G|--------------------------------|--------------------------------|
D|------------2---4-------2---4---|----2---4---4-------------------|
A|2---4-------0---2-------0---2---|----0---2---2---2---4---4---4---|
E|0---2---------------------------|----------------0---2---2---2---|


..Guitar I
E|--------------------------------|
B|--------------------------------|
G|--------------------------------|
D|--------------------------------|
A|--------------------------------|
E|2-2-2-2-2-2-2-2-2-2-2-2-2-2-2-2-|
 |                                |
 |Guitar II                       |
E|--------------------------------|
B|--------------------------------|
G|--------------------------------|
D|------------2---4-------2---4---|
A|2---4-------0---2-------0---2---|
E|0---2---------------------------|





**Fin**
Tap to rate this tab
# A B C D E F G H I J K L M N O P Q R S T U V W X Y Z