Song name
# A B C D E F G H I J K L M N O P Q R S T U V W X Y Z

Bret Michaels Band - Bittersweet tab

-------------------------------------------------------------------------------
			  Bittersweet - Bret Michaels Band
-------------------------------------------------------------------------------
Tabbed by: angusyoung2640
Email: brewerfan4life@aol.com

Tuning: Drop D

Might not be perfect. It sounds close enough though. Hopefully gonna have the solo done 
I'll post that once i get it. This tab should be at least good enough to get you 
Email me any corrections you have. brewerfan4life@aol.com

Intro Part 1

e|--------------------------------------------------------------|
B|--------------------------------------------------------------|
G|--------------------------------------------------------------|
D|-8---8---5---5---3---3---1--1---8---8---5---5---3---3---1--1--|
A|-8---8---5---5---3---3---1--1---8---8---5---5---3---3---1--1--|
D|-8-8-8---5-5-5---3-3-3---1--1---8-8-8---5-5-5---3-3-3---1--1--|


e|------------------------------------------------------------|
B|------------------------------------------------------------|
G|-3--3--7-7-7-7--5--5--8-8-8-8--3--3--7-7-7-7--5--5--8-8-8-8-|
D|------------------------------------------------------------|
A|-1--1--5-5-5-5--3--3--6-6-6-6--1--1--5-5-5-5--3--3--6-6-6-6-|
D|------------------------------------------------------------|

Verse

e|---------------------------------------------------------|
B|---------------------------------------------------------|
G|---------------------------------------------------------|
D|-----8------5------3------1------8------5------3------1--|
A|-----8------5------3------1------8------5------3------1--|
D|-8-8-8--5-5-5--3-3-3--1-1-1--8-8-8--5-5-5--3-3-3--1-1-1--|
  PM..   PM..   PM..   PM..   PM..   PM..   PM..   PM..

e|----------------------------------------------------------|
B|----------------------------------------------------------|
G|-----------------------------3--3---3-3-3---3-3-3---3-3-3-|
D|-----8------5------3------1--3--1---3-3-3---3-3-3---3-3-3-|
A|-----8------5------3------1--1--1---1-1-1---1-1-1---1-1-1-|
D|-8-8-8--5-5-5--3-3-3--1-1-1-------------------------------|
  PM..   PM..   PM..   PM..

Pre chorus

e|---------------------------------|
B|---------------------------------|
G|-7-7-7-7-5-5-5-5-3-3-3-3-3-3-3-3-|
D|-7-7-7-7-5-5-5-5-3-3-3-3-3-3-3-3-|
A|-5-5-5-5-3-3-3-3-1-1-1-1-1-1-1-1-|
D|---------------------------------|

Chorus Part 1

e|--------------------------------------------------------------------------|
B|--------------------------------------------------------------------------|
G|-------------------------------------------------3-3--3-3-3--3-3-3--3-3-3-|
D|-8--5-5--3--1-1--8--5-5--3--1-1--8--5-5--3--1-1--3-3--3-3-3--3-3-3--3-3-3-|
A|-8--5-5--3--1-1--8--5-5--3--1-1--8--5-5--3--1-1--1-1--1-1-1--1-1-1--1-1-1-|
D|-8--5-5--3--1-1--8--5-5--3--1-1--8--5-5--3--1-1---------------------------|

Chorus Part 2

e|------------------------------------------------------------|
B|------------------------------------------------------------|
G|-3--3--7-7-7-7--5--5--8-8-8-8--3--3--7-7-7-7--5--5--8-8-8-8-|
D|------------------------------------------------------------|
A|-1--1--5-5-5-5--3--3--6-6-6-6--1--1--5-5-5-5--3--3--6-6-6-6-|
D|------------------------------------------------------------|

Verse 2 (same as 1)
Pre chorus (Same as before)
Chorus (Same as before)

Solo (My best attempt anyways)

e|------------------------------------------------------------------|
B|------------------------------------------------------------------|
G|-3--3--7-7-7-7--5--5--8-8-8-8--7--7--10101010--8--8--12-12-12-12--|
D|------------------------------------------------------------------|
A|-1--1--5-5-5-5--3--3--6-6-6-6--5--5--8-8-8-8---6--6--10-10-10-10--|
D|------------------------------------------------------------------|

e|--------------------------------------------|
B|--------------------------------------------|
G|-10b12-10b12-10b12-10b12-10br----10br-10br--|
D|------------------------------12------------|
A|--------------------------------------------|
D|--------------------------------------------|

Not sure about this part

e|-----------------------------------------------------------|
B|-15p12--15p12--15p12--15p12--18p15--18p15--18b-18b--18-----|
G|------14-----14-----14-----14-----17-----17----------------|
D|-----------------------------------------------------------|
A|-----------------------------------------------------------|
D|-----------------------------------------------------------|

Verse 3 (No guitar except for a fill which i'm working on)

Pre chorus after 3rd verse
e|-------------------------------------------------------------|
B|-------------------------------------------------------------|
G|-3--3--7-7-7-7--5--5--8-8-8-8--3--3--7-7-7-7--5--5--8-8-8-8--|
D|-------------------------------------------------------------|
A|-1--1--5-5-5-5--3--3--6-6-6-6--1--1--5-5-5-5--3--3--6-6-6-6--|
D|-------------------------------------------------------------|

e|------------------------------------------------------------|
B|------------------------------------------------------------|
G|-3--3--7-7-7-7--5--5--8-8-8-8--3-3-3--3-3-3--3-3-3--3-3-3---|
D|------------------------------------------------------------|
A|-1--1--5-5-5-5--3--3--6-6-6-6--1-1-1--1-1-1--1-1-1--1-1-1---|
D|------------------------------------------------------------|

Chorus 3

e|-------------------------------------|
B|-------------------------------------|
G|-------------------------------------|
D|-8----5-5--3----1--8----5-5--3----1--|
A|-8----5-5--3----1--8----5-5--3----1--|
D|-8-x--5-5--3-x--1--8-x--5-5--3-x--1--|

e|----------------------------------------------|
B|----------------------------------------------|
G|-------------------3-3-3--3-3-3--3-3-3--3-3-3-| whole thing twice
D|-8----5-5--3----1-----------------------------|
A|-8----5-5--3----1--1-1-1--1-1-1--1-1-1--1-1-1-|
D|-8-x--5-5--3-x--1-----------------------------|

Chorus 3 continued

e|------------------------------|
B|------------------------------|
G|-3--3--7-7-7-7--5--5--8-8-8-8-|
D|------------------------------| x4
A|-1--1--5-5-5-5--3--3--6-6-6-6-|
D|------------------------------|
Tap to rate this tab
 
# A B C D E F G H I J K L M N O P Q R S T U V W X Y Z