Song name
# A B C D E F G H I J K L M N O P Q R S T U V W X Y Z

Bret Michaels - Go That Far tab

-------------------------------------------------------------------------------
			    Go That Far - Bret Michaels
-------------------------------------------------------------------------------
Tabbed by:smg
Email:Patricia_Brady@Yahoo.com

Tuning:Standard

e|--------------------------------------------------------------------------|
B|--------------------------------------------------------------------------|
G|-------------------3---5---3---5--5-------------------------3---5---3---5-|
D|---3---5---3---5---3---5---3---5--5---3---5--5--5---3---5---3---5---3---5-|
A|---3---5---3---5---1---3---1---3--3---3---5--5--5---3---5---1---3---1---3-|
E|---1---3---1---3----------------------1---3--3--3---1---3-----------------|

e|-------------------------------|--|---------------------------------------|
B|---0h1p0-------0h1p0-------0---|--|---------------------------------------|
G|-----------2-----------2-------|x2|---0h1p0-------0h1p0--------0----------|
D|-------------------------------|--|-----------2-----------2---------------|
A|-------------------------------|--|------------------------------17b--17b-|               
E|-------------------------------|--|------------------------------15b--15b-|

   I hope you guys like my version of Go That Far. See Ya!(: 
Tap to rate this tab
# A B C D E F G H I J K L M N O P Q R S T U V W X Y Z