Song name
# A B C D E F G H I J K L M N O P Q R S T U V W X Y Z

Brett Dennen - Fig Tree tab

Help us improve GuitareTab! Take a short survey!
Fig Tree -Brett Dennen
Hey everybody this is my first tab, I'm almost 100% on it.
I used the youtube video version, 
so check that out for references (Brett tunes down half a step).
It has 8 bar phrases, and has the bass note first then the chord hit.

Intro/verse
e--||--6--4--2--2--4--6--6--4--1--2--2--4--2-2-||
B--||--7--6--2--2--6--7--7--6--3--4--2--6--2-2-||
G--||--6--4--3--3--4--6--6--4--1--2--3--4--3-3.||
D--||--8--6--x--x--6--8--8--6--3--4--x--6--x--.||
A--||--6--4--x--x--4--6--6--4--1--2--x--4--x---||
E--||--------2--2--------------------2-----2---||

*(make sure to do a little fiddlin' arround on that F# chord)

Chorus(2x)             *  *
e--||---6---6---6---6--2--2----6---6---6---6--2--4--2-2-||
B--||---7---7---7---7--2--2----7---7---7---7--2--6--2-2-||
G--||---6---6---6---6--3--3----6---6---6---6--3--4--3-3.||
D--||---8---8---8---8--x--x----8---8---8---8--x--6--x--.||
A--||-6-6---6-6-6---6--x--x--6-6---6-6-6---6--x--4--x---||
E--||-----6-------6----2--2------6-------6----2-----2---||


Thanks everybody!
-Kier
Related for Fig Tree tab