Guitaretab - guitar tabs
Song name
# A B C D E F G H I J K L M N O P Q R S T U V W X Y Z

Brett Dennen - So Far From Me tab

-------------------------------------------------------------------------
SO FAR FROM ME  Brett Dennen
-------------------------------------------------------------------------
Tabbed by: Kengus

This is more or less how SFFM is played. The transitions aren't perfect,
but other than that the tab gives you a pretty good idea of what's going on.

Standard tuning

INTRO
                         A
e|------12-----11----9---------0-------0-------2-------0-------0-------0-|
B|-------------------------2-------2-------2-------2-------2-------2-----|
G|---13-----11-----9-----------------------------------------------------|
D|---------------------------2-------2-------2-------2-------2-------2---|
A|-----------------------0-------0-------0-------0-------0-------0-------|
E|-0---------------------------------------------------------------------|
                    Eadd11
e|-------2------(0)-------4-------4-------4-------4-------4-------4------|
B|---2-------2----------0-------0-------0-------0-------0-------0--------|
G|--------------------2-------2-------2-------2-------2-------2-------2--|
D|-----2-------2---------------------------------------------------------|
A|-0-------0-------------------------------------------------------------|
E|------------------0-------0-------0-------0-------0-------0-------0----|
                 VERSES
                  A                                Badd4  
e|---4------(4)-|-------0-------0-------0------(0)-------2-------2-------|
B|-0-------0----|---2-------2-------2-------2--------4-------4-------4---|
G|-------2------|--------------------------------------------------------|
D|--------------|-----2-------2-------2-------2--------2-------2-------2-|
A|--------------|-0-------0-------0-------0--------2-------2-------2-----|
E|-----0--------|--------------------------------------------------------|
              Eadd11                           A
e|-2------(2)-------4-------4-------4------(4)-------0-------0-------0---|
B|-----4----------0-------0-------0-------0------2-------2-------2-------|
G|--------------2-------2-------2-------2--------------------------------|
D|-------2-----------------------------------------2-------2-------2-----|
A|---2-----------------------------------------0-------0-------0-------0-|
E|------------0-------0-------0-------0----------------------------------|
                                          Badd4
e|-----0-------0-------0-------0------(0)-------2-------2-------2-------2|
B|-2-------2-------2-------2-------2--------4-------4-------4-------4----|
G|-----------------------------------------------------------------------|
D|---2-------2-------2-------2-------2--------2-------2-------2-------2--|
A|-------0-------0-------0-------0--------2-------2-------2-------2------|
E|-----------------------------------------------------------------------|
   Eadd11                           A
e|-------4-------4-------4------(4)-------0-------0-------0---------|
B|-----0-------0-------0-------0------2-------2-------2-------------|
G|---2-------2-------2-------2--------------------------------------|
D|--------------------------------------2-------2-------2-----------|
A|----------------------------------0-------0-------0-------0-------|
E|-0-------0-------0-------0-----------------------------------4----|
[ Tab from: http://www.guitaretab.com/b/brett-dennen/195885.html ]
PRE-CHORUSES
   F#7sus4                          Badd4                            Eadd11
e|----------------------------------------2-------2-------2-------2------|
B|-------2-------2-------2-------2----4-------4-------4-------4----------|
G|---4-------4-------4-------4-----------------------------------------2-|
D|-----2-------2-------2-------2--------2-------2-------2-------2--------|
A|----------------------------------2-------2-------2-------2------------|
E|-2-------2-------2-------2-----------------------------------------0---|
                                A                             F#7sus4
e|---4-------4-------4-------4--------0-------0-------0------------------|
B|-0-------0-------0-------0------2-------2-------2----------------2-----|
G|-------2-------2-------2-------------------------------------4-------4-|
D|----------------------------------2-------2-------2------------2-------|
A|------------------------------0-------0-------0-------0----------------|
E|-----0-------0-------0-----------------------------------4--2------2---|
                        Badd4                           Eadd11
e|----------------------------2-------2-------2-------2-------4-------4--|
B|---2-------2-------2----4-------4-------4-------4---------0-------0----|
G|-------4-------4----------------------------------------2-------2------|
D|-2-------2-------2--------2-------2-------2-------2--------------------|
A|----------------------2-------2-------2-------2------------------------|
E|-----2-------2----------------------------------------0-------0--------|
                                                      CHORUSES
                    Badd4                              A
e|-------4-------0--------2-------2-------2------(2)-|-------0-------0---|
B|-----0-------0------4-------4-------4-------4------|---2-------2-------|
G|---2-------2---------------------------------------|-------------------|
D|----------------------2-------2-------2-------2----|-----2-------2-----|
A|------------------2-------2-------2-------2--------|-0-------0---------|
E|-0-------0-----------------------------------------|-------------------|
   Badd4           Eadd11                           A               Badd4
e|-------2-------2-------4-------4-------4-------4--------0-------0------|
B|---4-------4---------0-------0-------0-------0------2-------2-------4--|
G|-------------------2-------2-------2-------2---------------------------|
D|-----2-------2----------------------------------------2-------2--------|
A|-2-------2----------------------------------------0-------0-------2----|
E|-----------------0-------0-------0-------0-----------------------------|
                Eadd11                           A               Badd4
e|----2-------2-------4-------4-------4-------4--------0-------0-------2-|
B|--------4---------0-------0-------0-------0------2-------2-------4-----|
G|----------------2-------2-------2-------2------------------------------|
D|--2-------2----------------------------------------2-------2-------2---|
A|------2----------------------------------------0-------0-------2-------|
E|--------------0-------0-------0-------0--------------------------------|
           C#m                              A               Badd4
e|-------2---0-------0-------0-------0------------0-------0-------2------|
B|---4-----------2-------2-------2-------2----2-------2-------4-------4--|
G|-----------------------------------------------------------------------|
D|-----2-------2-------2-------2-------2--------2-------2-------2--------|
A|-2-------4-------4-------4-------4--------0-------0-------2-------2----|
E|-----------------------------------------------------------------------|
       Eadd11
e|---2-------4-----4-------4-----4-------4-----4-------4-----------------|
B|---------0-----0-------0-----0-------0-----0-------0-------2-----------|
G|-------2-----2-------2-----2-------2-----2-------2-----2h4-------------|
D|-2---------------------------------------------------------------------|
A|-----------------------------------------------------------------------|
E|-----0-------------0-------------0-------------0-----------------------|

BRIDGE                                   posted on www.ultimate-guitar.com
   Badd4                            A                                C#m
e|-------2-------2-------2-------2--------0-------0-------0-------0----0-|
B|---4-------4-------4-------4--------2-------2-------2-------2----------|
G|-----------------------------------------------------------------------|
D|-----2-------2-------2-------2--------2-------2-------2-------2--------|
A|-2-------2-------2-------2--------0-------0-------0-------0--------4---|
E|-----------------------------------------------------------------------|
                                Badd4                            F#7sus4
e|-------0-------0-------0------------2-------2-------2-------2----------|
B|---2-------2-------2-------2----4-------4-------4-------4------------2-|
G|-----------------------------------------------------------------4-----|
D|-2-------2-------2-------2--------2-------2-------2-------2--------2---|
A|-----4-------4-------4--------2-------2-------2-------2----------------|
E|---------------------------------------------------------------2-------|
                            A                                C#m
e|--------------------------------0-------0-------0-------0----0-------0-|
B|-------2-------2-------2----2-------2-------2-------2------------2-----|
G|---4-------4-------4---------------------------------------------------|
D|-----2-------2-------2--------2-------2-------2-------2--------2-------|
A|--------------------------0-------0-------0-------0--------4-------4---|
E|-2-------2-------2-----------------------------------------------------|
                        Badd4
e|-------0-------0------------2-------2-------2-------2-|
B|---2-------2-------2----4-------4-------4-------4-----|
G|------------------------------------------------------|
D|-2-------2-------2--------2-------2-------2-------2---|
A|-----4-------4--------2-------2-------2-------2-------|
E|------------------------------------------------------|

INTRO
A  Eadd11

VERSE1
A                    Badd4
    Crows ravaging a field of wheat
Eadd11                      A
      Stars jealous of the moon
                     Badd4
Scarecrows know their own defeat
Eadd11                                A
      Envy in the heart that it consumes

PRE-CHORUS
F#7sus4                 Badd4             Eadd11                       A
      Today I walked without you, like an empty bottle drifting out to sea
F#7sus4                 Badd4                      Eadd11         Badd4
      I would change if I knew how to, but it don't come that easily

CHORUS
A           Badd4          Eadd11  A                   Badd4         Eadd11
If my heart wasn't such a jungle,  maybe you wouldn't feel so all alone
A             Badd4          C#m   A            Badd4       Eadd11
If your heart wasn't such an ocean,  I wouldn't sink like a stone

VERSE2
If you weren't so far from me
I could hold you while you're sleeping
And hear you breathing softly
And be there when you're waking

PRE-CHORUS
Phone calls could not complete us, letters could not replace
Miles and miles and miles between us, another time, another place

CHORUS
If my heart wasn't such a jungle, maybe you wouldn't feel so all alone
And if your heart wasn't such an ocean, I wouldn't sink like a stone

BRIDGE
Badd4                      A               C#m       Badd4
      I have yet to meet another who burns bright as you
F#7sus4                          A              C#m  Badd4
        I'm not looking for any other, I only want   you

CHORUS (a little bit different than before)
A           Badd4          Eadd11  A                   Badd4         Eadd11
If my heart wasn't such a jungle,  maybe you wouldn't feel so all alone
A             Badd4          C#m   A            Badd4       Eadd11
If your heart wasn't such an ocean,  I wouldn't sink like a stone
A             Badd4       C#m       
   I wouldn't sink like a stone
A            Badd4       Eadd11
   I wouldn't sink like a stone.

=========================================================================
Comment, rate, appreciate!
Related for So Far From Me tab
So Far From Me chords by Brett Dennen