Song name
# A B C D E F G H I J K L M N O P Q R S T U V W X Y Z

Brett Dennen - You And I chords

Highlighted       Show chord diagrams
You and I by Brett Dennen
Transcribed by Mike Naulls

Chords:
Fmaj7
C
G
C/B
Am

CAPO  4

Intro:

Fmaj, G, C, Fmaj,
G (one muted strum)

OR

--------------0-----------0-----------0--|
-3--1------1---3--------3--3-1-----1-----|
-------3-3---------------------3-3-------|
-----------------------------------------|
-----------------------------------------|
-----------------------------------------|

Strum Once, Mute: G

[Strike bass note, then strum]

Fmaj                        G
From the moment I met you
                                C
First heard the sound of your voice
            Fmaj   G
I couldn't forget you
                              C
It's not like I had the choice
             Fmaj G
It was in a dark place
         C                        C/B    Am
And I couldn't really see your face
        G
But I knew right away that

Fmaj               G         C
You and I are two of a kind
     Fmaj                       G
So put your hand in mine
Fmaj G           C        C/B Am
Some-day you and I will go a-way

But our love will stay behind

[Intro Chords/Between Verse Riff]
(Do-do-do)

Juliet and Romeo
I couldn't understand in school
John and Yoko
I put them on a pedestal
But the greatest story I can tell
Is the one about how I fell
I remember so well

You and I are two of a kind
So put your hand in mine
Someday you and I will go away
But our love will stay behind

(Do-do-do)

It's not the clothes you wear
Or the way that you do your hair
It's the love we share

You and I are two of a kind
So put your hand in mine
Someday you and I will away
But our love will stay behind

(Do-do-do)

End on: C

-----------
Between Verse Riff [Basically the intro riff with a couple extra notes]

--------------0-----------0-----------0---------|
-3--1------1---3--------3--3-1-----1---3-0-1----|
-------3-3---------------------3-3--------------|
------------------------------------------------|
------------------------------------------------|
------------------------------------------------|
Tap to rate this tab
 
# A B C D E F G H I J K L M N O P Q R S T U V W X Y Z