Song name
# A B C D E F G H I J K L M N O P Q R S T U V W X Y Z

Brett Dennen - All We Have tab

=============================================
           All We Have - Brett Dennen
=============================================

Verse lick:
|--------------------------------------------|
|--------------5-----7--7--------------------|
|---------2------2---6--6--------------------|
|-----2h4------------7--7---------4h7--------|
|--------------------5--5----4h7-------------|
|-2------------------------------------7p5---|

Chorus
 Dmaj7    C#m7     Bm7      Bm7
|-5--------9--------2--------2---------------|
|-7--------9--------3--------3---------------|
|-6--------9--------2--------2---------------|
|-7-------11--------4--------4---------------|
|-5-----------------2--------2---------------|
|--------------------------------------------|

Link
|--------------------------------------------|
|--------------------------------------------|
|---------2-------2-----------2------2-------|
|-2---4-------2-4-----2---4------2-4---------|
|--------------------------------------------|
|--------------------------------------------|

Bridge
|----2-----------4----5--5------------5------|
|----2-----------5----7--7----------7--------|
|----2-----------4----6--6--------6----------|
|----------------6----7--7------7------------|
|--------2--4---------5--5----5--------------|
|-2------------------------------------------|

Then follow chorus chord progression.

Comments/amendments:
mickyginger@gmail.com
Tap to rate this tab
# A B C D E F G H I J K L M N O P Q R S T U V W X Y Z