Song name
# A B C D E F G H I J K L M N O P Q R S T U V W X Y Z

Brett Dennen - Walk Away Watch Me Burn chords

Highlighted       Show chord diagrams
----------------------------------------------------------------------------
Walk Away Watch Me Burn - Brett Dennen
----------------------------------------------------------------------------




Second guitar intro (played as harmonics, listen to song for timing):

e|------------------------------------------------------|
B|---------------(5)--------------------------(5)-------|
G|--(6)-------------(6)--------------------------(6)----|
D|-----(7)-----(8)--------------(8)--(8)---(8)----------|
A|----------(8)-------------------------(8)-------------|
E|------------------------------------------------------|

e|------------------------------------------------------|
B|---------(5)--------------------------(5)-------------|
G|--(6)-------(6)--------------------------(6)----------|
D|------(7)------------------(7)-----(7)----------------|
A|-------------------------------(7)--------------------|
E|------------------------------------------------------|

Intro: A, D, A

Verse 1:
A
Woke up early this mornin'
A                D   A
To a thunder and rainstorm
A            F#m                 
Last night I forgot to close
   D
My windows
A
My home's been broken
A                           D    A  
And my heart has been blown wide open
                   F#m   
I don't wanna feel angry
                   E
I don't wanna feel empty
                D
I don't want no sympathy

Chorus:
F#m   
Who am I to blame?
           D               A
What can I say? I'll never learn
F#m   
Going down in flames
D                   A
Walk away, watch me burn
D                   F#m          E
Walk away, watch me burn

Verse 2:
A
I was thinking 'bout my place in the universe
A              D       A
Looking at the Earth's curve
F#m   
How much my little heart can hurt
D
Some people got a lot of nerve
A
I'm not afraid
A                          D      A
No, I never been afraid of failure
                   F#m   
I'm not afraid of global warmin'
E
Or the market crashin'
D
Or the terrorists attackin'

Chorus:
F#m   
Who am I to blame?
           D               A
What can I say? I'll never learn
F#m   
Going down in flames
D                   A
Walk away, watch me burn
D                   F#m   
Walk away, watch me burn

Bridge:
F#7                 E

Bm                         E
I swam in the ocean in the night
                        F#m
Under the stars      so clear
Bm                          E
My pale body bouncin' in the waves
                F#m       B                    E
I felt I could disappear, I'm still here, yes, I am

Chorus:
F#m   
Who am I to blame?
           D               A
What can I say? I'll never learn
F#m   
Going down in flames
D          A
Walk away, watch me burn
D          F#m   
Walk away, watch me burn
Tap to rate this tab
 
# A B C D E F G H I J K L M N O P Q R S T U V W X Y Z