Song name
# A B C D E F G H I J K L M N O P Q R S T U V W X Y Z

Brett Dennen - Blessed tab

Edited one of the previous tabs. Guess this should be pretty good now. I listened 
to the song on Spotify to pick it out. Also, small timing problems will most probably occur.

I call this part PLINGPLONG
|--12--10--|
|----------|
|----------|
|--10--9---|
|----------|
|----------|

Intro
|-8--8-10-12----5---13--12--10--3--7-8-10--10p-8p-7--8--12--7----|
|-8-8-----------6---------------3--------------------8------8----|
|-9-------------5---------------4--------------------9------7----|
|-10------------7---------------5--------------------10----------|
|-10------------5---------------5--------------------10----------|
|-8-----------------------------3--------------------8-----------| x2
  C             Dm7             G                    C

|-8------7--13--5------12--10--|
|-8------8------6--------------|
|-9------7------5--------------|
|-10------------7------10--9---|
|-10------------5--------------|
|-8----------------------------| x4
  C             Dm7

C
I welcome the sun
Dm7 
The clouds and rain
G                                      C                     G
The wind that sweeps the sky clean and lets the sun shine again 
C                              Dm7
This is the most magnificent life has ever been 
G                                     C             G
Here is heaven and earth and the brilliant sky inbetween 

C          G      Dm7         C   G         C     G        Dm7 PLINGPLONG
Blessed is this this life and I'm gonna celebrate being alive 
C          G      Dm7         C   G         C     G        Dm7 PLINGPLONG
Blessed is this this life and I'm gonna celebrate being alive 

C G D7 PLINGPLONG X4

C          G           Dm7     C   G         C     G        Dm7 PLINGPLONG
Blessed is this this life, and I'm gonna celebrate being alive 
C          G           Dm7        C   G         C     G        Dm7 PLINGPLONG
Blessed is this this life oh, and I'm gonna celebrate being alive 

C Dm7 G C G 

C
I dwell in the darkness 
Dm7
I let in the light 
G                                C                     G
I sleep in the afternoon and become the noise in the night 
C                     Dm7
I trespass in temptation suffer in sacrifice 
G                         C             G
But I awake each day with the new sunrise 

C Dm7 G C G x2 

C          G           Dm7        C   G         C     G        Dm7 PLINGPLONG
Blessed is this this life oh, and I'm gonna celebrate being alive
Blessed is this this life oh, and I'm gonna celebrate being alive
Blessed is this this life oh, and I'm gonna celebrate being alive
Blessed is this this life oh, and I'm gonna celebrate being alive 
Tap to rate this tab
# A B C D E F G H I J K L M N O P Q R S T U V W X Y Z